ISO-10303-21;
HEADER;
FILE_DESCRIPTION (( 'STEP AP203' ),
    '1' );
FILE_NAME ('321484.step',
    '2021-11-26T10:04:17',
    ( '' ),
    ( '' ),
    'SwSTEP 2.0',
    'SolidWorks 2019',
    '' );
FILE_SCHEMA (( 'CONFIG_CONTROL_DESIGN' ));
ENDSEC;

DATA;
#1 =( GEOMETRIC_REPRESENTATION_CONTEXT ( 3 ) GLOBAL_UNCERTAINTY_ASSIGNED_CONTEXT ( ( #212 ) ) GLOBAL_UNIT_ASSIGNED_CONTEXT ( ( #90, #174, #43 ) ) REPRESENTATION_CONTEXT ( 'NONE', 'WORKASPACE' ) );
#2 = CARTESIAN_POINT ( 'NONE',  ( 0.0000000000000000000, 0.0000000000000000000, 0.0000000000000000000 ) ) ;
#3 = AXIS2_PLACEMENT_3D ( 'NONE', #170, #127, #53 ) ;
#4 = CC_DESIGN_SECURITY_CLASSIFICATION ( #65, ( #61 ) ) ;
#5 = FACE_OUTER_BOUND ( 'NONE', #97, .T. ) ;
#6 = ORIENTED_EDGE ( 'NONE', *, *, #217, .F. ) ;
#7 = MANIFOLD_SOLID_BREP ( 'Corps-Déplacer/Copier1[2]', #116 ) ;
#8 = CALENDAR_DATE ( 2021, 26, 11 ) ;
#9 = AXIS2_PLACEMENT_3D ( 'NONE', #148, #218, #21 ) ;
#10 = APPROVAL_PERSON_ORGANIZATION ( #144, #93, #168 ) ;
#11 = APPROVAL_ROLE ( '' ) ;
#12 = CC_DESIGN_PERSON_AND_ORGANIZATION_ASSIGNMENT ( #207, #206, ( #138 ) ) ;
#13 = APPLICATION_PROTOCOL_DEFINITION ( 'international standard', 'config_control_design', 1994, #47 ) ;
#14 = CARTESIAN_POINT ( 'NONE',  ( -2.536257850848273230E-30, 2.673059892324148645, -7.264131194493614159E-16 ) ) ;
#15 = AXIS2_PLACEMENT_3D ( 'NONE', #238, #55, #62 ) ;
#16 = ADVANCED_FACE ( 'NONE', ( #20 ), #171, .T. ) ;
#17 = DATE_TIME_ROLE ( 'classification_date' ) ;
#18 = CARTESIAN_POINT ( 'NONE',  ( 2.779219145719134403E-13, 1.999999999999988010, 79.60000000000000853 ) ) ;
#19 = CARTESIAN_POINT ( 'NONE',  ( 4.885231259955589808E-14, 1.999999999999990452, 13.99185842870424956 ) ) ;
#20 = FACE_OUTER_BOUND ( 'NONE', #145, .T. ) ;
#21 = DIRECTION ( 'NONE',  ( 3.153425691349006731E-31, 1.000000000000000000, 9.031770143711729009E-17 ) ) ;
#22 = APPROVAL_STATUS ( 'not_yet_approved' ) ;
#23 = DIRECTION ( 'NONE',  ( -3.153425691349006731E-31, -1.000000000000000000, -9.031770143711729009E-17 ) ) ;
#24 = EDGE_LOOP ( 'NONE', ( #52 ) ) ;
#25 = ADVANCED_BREP_SHAPE_REPRESENTATION ( '321484', ( #81, #7, #197 ), #1 ) ;
#26 = FACE_OUTER_BOUND ( 'NONE', #243, .T. ) ;
#27 = MECHANICAL_CONTEXT ( 'NONE', #228, 'mechanical' ) ;
#28 = PERSON_AND_ORGANIZATION ( #31, #86 ) ;
#29 = CC_DESIGN_PERSON_AND_ORGANIZATION_ASSIGNMENT ( #178, #66, ( #65 ) ) ;
#30 = DATE_AND_TIME ( #115, #128 ) ;
#31 = PERSON ( 'UNSPECIFIED', 'UNSPECIFIED', 'UNSPECIFIED', ('UNSPECIFIED'), ('UNSPECIFIED'), ('UNSPECIFIED') ) ;
#32 = APPROVAL_DATE_TIME ( #137, #155 ) ;
#33 = ORIENTED_EDGE ( 'NONE', *, *, #199, .T. ) ;
#34 = DIRECTION ( 'NONE',  ( -3.491481338843133355E-15, 9.031770143711729009E-17, -1.000000000000000000 ) ) ;
#35 = EDGE_LOOP ( 'NONE', ( #114 ) ) ;
#36 = FACE_OUTER_BOUND ( 'NONE', #135, .T. ) ;
#37 = PLANE ( 'NONE',  #177 ) ;
#38 = AXIS2_PLACEMENT_3D ( 'NONE', #201, #41, #106 ) ;
#39 = EDGE_LOOP ( 'NONE', ( #98 ) ) ;
#40 = APPROVAL_PERSON_ORGANIZATION ( #77, #230, #191 ) ;
#41 = DIRECTION ( 'NONE',  ( -3.491481338843133355E-15, -5.435068039704610974E-16, -1.000000000000000000 ) ) ;
#42 = CARTESIAN_POINT ( 'NONE',  ( 5.072515701696546459E-30, 7.896209458282704590E-31, 1.452826238898722832E-15 ) ) ;
#43 =( NAMED_UNIT ( * ) SI_UNIT ( $, .STERADIAN. ) SOLID_ANGLE_UNIT ( ) );
#44 = EDGE_CURVE ( 'NONE', #236, #236, #108, .T. ) ;
#45 = CIRCLE ( 'NONE', #126, 1.999999999999995337 ) ;
#46 = EDGE_CURVE ( 'NONE', #214, #214, #112, .T. ) ;
#47 = APPLICATION_CONTEXT ( 'configuration controlled 3d designs of mechanical parts and assemblies' ) ;
#48 = CALENDAR_DATE ( 2021, 26, 11 ) ;
#49 = COORDINATED_UNIVERSAL_TIME_OFFSET ( 1, 0, .AHEAD. ) ;
#50 = DATE_TIME_ROLE ( 'creation_date' ) ;
#51 = CARTESIAN_POINT ( 'NONE',  ( 1.396592535537253145E-15, 2.903999999999998582, 0.3999999999999999667 ) ) ;
#52 = ORIENTED_EDGE ( 'NONE', *, *, #46, .T. ) ;
#53 = DIRECTION ( 'NONE',  ( 0.0000000000000000000, 1.000000000000000000, 0.0000000000000000000 ) ) ;
#54 = CARTESIAN_POINT ( 'NONE',  ( 2.793185071074506684E-13, -7.225416114969383207E-15, 80.00000000000000000 ) ) ;
#55 = DIRECTION ( 'NONE',  ( -3.491481338843133355E-15, 9.031770143711729009E-17, -1.000000000000000000 ) ) ;
#56 = CARTESIAN_POINT ( 'NONE',  ( 2.779219145719134403E-13, -7.189289034394536528E-15, 79.60000000000000853 ) ) ;
#57 = CALENDAR_DATE ( 2021, 26, 11 ) ;
#58 = DIRECTION ( 'NONE',  ( -3.491481338843133355E-15, 9.031770143711729009E-17, -1.000000000000000000 ) ) ;
#59 = AXIS2_PLACEMENT_3D ( 'NONE', #133, #203, #175 ) ;
#60 = DIRECTION ( 'NONE',  ( 3.153425691349006731E-31, 1.000000000000000000, 9.031770143711729009E-17 ) ) ;
#61 = PRODUCT_DEFINITION_FORMATION_WITH_SPECIFIED_SOURCE ( 'ANY', '', #165, .NOT_KNOWN. ) ;
#62 = DIRECTION ( 'NONE',  ( 0.0000000000000000000, 1.000000000000000000, 0.0000000000000000000 ) ) ;
#63 = PERSON_AND_ORGANIZATION ( #31, #86 ) ;
#64 = PERSON_AND_ORGANIZATION_ROLE ( 'design_supplier' ) ;
#65 = SECURITY_CLASSIFICATION ( '', '', #113 ) ;
#66 = PERSON_AND_ORGANIZATION_ROLE ( 'classification_officer' ) ;
#67 = ADVANCED_FACE ( 'NONE', ( #5, #26 ), #225, .T. ) ;
#68 = COORDINATED_UNIVERSAL_TIME_OFFSET ( 1, 0, .AHEAD. ) ;
#69 = AXIS2_PLACEMENT_3D ( 'NONE', #14, #162, #232 ) ;
#70 = FACE_OUTER_BOUND ( 'NONE', #118, .T. ) ;
#71 = CARTESIAN_POINT ( 'NONE',  ( 4.338544214196613365E-14, 2.903999999999998138, 12.42608449866195031 ) ) ;
#72 = FACE_BOUND ( 'NONE', #39, .T. ) ;
#73 = DIRECTION ( 'NONE',  ( 1.897643863597138025E-30, -1.000000000000000000, 5.435068039704610974E-16 ) ) ;
#74 = CIRCLE ( 'NONE', #38, 2.903999999999991033 ) ;
#75 = CARTESIAN_POINT ( 'NONE',  ( 0.0000000000000000000, 0.0000000000000000000, 0.0000000000000000000 ) ) ;
#76 = CONICAL_SURFACE ( 'NONE', #209, 2.673059892324148645, 0.5235987755982970393 ) ;
#77 = PERSON_AND_ORGANIZATION ( #31, #86 ) ;
#78 = COORDINATED_UNIVERSAL_TIME_OFFSET ( 1, 0, .AHEAD. ) ;
#79 = LOCAL_TIME ( 11, 4, 17.00000000000000000, #241 ) ;
#80 = CYLINDRICAL_SURFACE ( 'NONE', #9, 1.999999999999993561 ) ;
#81 = MANIFOLD_SOLID_BREP ( 'Corps-Déplacer/Copier1[1]', #103 ) ;
#82 = VERTEX_POINT ( 'NONE', #147 ) ;
#83 = DIRECTION ( 'NONE',  ( 3.491481338843133355E-15, -9.031770143711729009E-17, 1.000000000000000000 ) ) ;
#84 = DIRECTION ( 'NONE',  ( -1.897643863597138025E-30, 1.000000000000000000, -5.435068039704610974E-16 ) ) ;
#85 = DIRECTION ( 'NONE',  ( 3.491481338843133355E-15, 5.435068039704610974E-16, 1.000000000000000000 ) ) ;
#86 = ORGANIZATION ( 'UNSPECIFIED', 'UNSPECIFIED', '' ) ;
#87 = ORIENTED_EDGE ( 'NONE', *, *, #199, .F. ) ;
#88 = CARTESIAN_POINT ( 'NONE',  ( 5.072515701696546459E-30, 7.896209458282704590E-31, 1.452826238898722832E-15 ) ) ;
#89 = ORIENTED_EDGE ( 'NONE', *, *, #217, .T. ) ;
#90 =( LENGTH_UNIT ( ) NAMED_UNIT ( * ) SI_UNIT ( .MILLI., .METRE. ) );
#91 = LOCAL_TIME ( 11, 4, 17.00000000000000000, #229 ) ;
#92 = APPLICATION_PROTOCOL_DEFINITION ( 'international standard', 'config_control_design', 1994, #228 ) ;
#93 = APPROVAL ( #22, 'UNSPECIFIED' ) ;
#94 = PERSON_AND_ORGANIZATION ( #31, #86 ) ;
#95 = FACE_OUTER_BOUND ( 'NONE', #233, .T. ) ;
#96 = AXIS2_PLACEMENT_3D ( 'NONE', #151, #220, #60 ) ;
#97 = EDGE_LOOP ( 'NONE', ( #89 ) ) ;
#98 = ORIENTED_EDGE ( 'NONE', *, *, #44, .F. ) ;
#99 = LOCAL_TIME ( 11, 4, 17.00000000000000000, #68 ) ;
#100 = VERTEX_POINT ( 'NONE', #51 ) ;
#101 = CARTESIAN_POINT ( 'NONE',  ( 2.793185071074506684E-13, -7.225416114969383207E-15, 80.00000000000000000 ) ) ;
#102 = DIRECTION ( 'NONE',  ( 3.491481338843133355E-15, 5.435068039704610974E-16, 1.000000000000000000 ) ) ;
#103 = CLOSED_SHELL ( 'NONE', ( #190, #235, #120, #205, #16 ) ) ;
#104 = FACE_OUTER_BOUND ( 'NONE', #222, .T. ) ;
#105 = DATE_AND_TIME ( #57, #79 ) ;
#106 = DIRECTION ( 'NONE',  ( -2.122236853319274748E-30, 1.000000000000000000, -5.973565688625387333E-16 ) ) ;
#107 = DIRECTION ( 'NONE',  ( -3.491481338843133355E-15, -5.435068039704610974E-16, -1.000000000000000000 ) ) ;
#108 = CIRCLE ( 'NONE', #156, 2.673059892324148645 ) ;
#109 = APPROVAL_PERSON_ORGANIZATION ( #28, #155, #11 ) ;
#110 = EDGE_CURVE ( 'NONE', #100, #100, #188, .T. ) ;
#111 = DIRECTION ( 'NONE',  ( -1.897643863597138025E-30, 1.000000000000000000, -5.435068039704610974E-16 ) ) ;
#112 = CIRCLE ( 'NONE', #15, 1.999999999999991784 ) ;
#113 = SECURITY_CLASSIFICATION_LEVEL ( 'unclassified' ) ;
#114 = ORIENTED_EDGE ( 'NONE', *, *, #110, .T. ) ;
#115 = CALENDAR_DATE ( 2021, 26, 11 ) ;
#116 = CLOSED_SHELL ( 'NONE', ( #176, #67, #202, #223 ) ) ;
#117 = APPROVAL_STATUS ( 'not_yet_approved' ) ;
#118 = EDGE_LOOP ( 'NONE', ( #149 ) ) ;
#119 = VERTEX_POINT ( 'NONE', #193 ) ;
#120 = ADVANCED_FACE ( 'NONE', ( #224, #95 ), #80, .T. ) ;
#121 = ORIENTED_EDGE ( 'NONE', *, *, #46, .F. ) ;
#122 = FACE_BOUND ( 'NONE', #123, .T. ) ;
#123 = EDGE_LOOP ( 'NONE', ( #141 ) ) ;
#124 = FACE_BOUND ( 'NONE', #24, .T. ) ;
#125 = DIRECTION ( 'NONE',  ( 0.0000000000000000000, 1.000000000000000000, 0.0000000000000000000 ) ) ;
#126 = AXIS2_PLACEMENT_3D ( 'NONE', #56, #215, #146 ) ;
#127 = DIRECTION ( 'NONE',  ( -3.491481338843133355E-15, 9.031770143711729009E-17, -1.000000000000000000 ) ) ;
#128 = LOCAL_TIME ( 11, 4, 17.00000000000000000, #49 ) ;
#129 = CC_DESIGN_PERSON_AND_ORGANIZATION_ASSIGNMENT ( #94, #64, ( #61 ) ) ;
#130 = CIRCLE ( 'NONE', #139, 2.903999999999999471 ) ;
#131 = LOCAL_TIME ( 11, 4, 17.00000000000000000, #78 ) ;
#132 = CC_DESIGN_DATE_AND_TIME_ASSIGNMENT ( #30, #17, ( #65 ) ) ;
#133 = CARTESIAN_POINT ( 'NONE',  ( 1.396592535537258667E-15, 2.174027215881852821E-16, 0.4000000000000015210 ) ) ;
#134 = DIRECTION ( 'NONE',  ( -3.491481338843133355E-15, -5.435068039704610974E-16, -1.000000000000000000 ) ) ;
#135 = EDGE_LOOP ( 'NONE', ( #185 ) ) ;
#136 = DATE_AND_TIME ( #158, #131 ) ;
#137 = DATE_AND_TIME ( #48, #91 ) ;
#138 = PRODUCT_DEFINITION ( 'UNKNOWN', '', #61, #194 ) ;
#139 = AXIS2_PLACEMENT_3D ( 'NONE', #184, #58, #125 ) ;
#140 = DATE_AND_TIME ( #8, #99 ) ;
#141 = ORIENTED_EDGE ( 'NONE', *, *, #142, .T. ) ;
#142 = EDGE_CURVE ( 'NONE', #119, #119, #239, .T. ) ;
#143 = CARTESIAN_POINT ( 'NONE',  ( -6.842277657836020854E-46, 2.673059892324148645, 0.0000000000000000000 ) ) ;
#144 = PERSON_AND_ORGANIZATION ( #31, #86 ) ;
#145 = EDGE_LOOP ( 'NONE', ( #33 ) ) ;
#146 = DIRECTION ( 'NONE',  ( 0.0000000000000000000, 1.000000000000000000, 0.0000000000000000000 ) ) ;
#147 = CARTESIAN_POINT ( 'NONE',  ( 4.338544214196613365E-14, 2.903999999999998138, 12.42608449866195031 ) ) ;
#148 = CARTESIAN_POINT ( 'NONE',  ( 0.0000000000000000000, 0.0000000000000000000, 0.0000000000000000000 ) ) ;
#149 = ORIENTED_EDGE ( 'NONE', *, *, #160, .F. ) ;
#150 = FACE_OUTER_BOUND ( 'NONE', #35, .T. ) ;
#151 = CARTESIAN_POINT ( 'NONE',  ( 4.338544214196612734E-14, 2.903999999999998138, 12.42608449866194853 ) ) ;
#152 = AXIS2_PLACEMENT_3D ( 'NONE', #186, #102, #73 ) ;
#153 = ORIENTED_EDGE ( 'NONE', *, *, #110, .F. ) ;
#154 = PRODUCT_DEFINITION_SHAPE ( 'NONE', 'NONE',  #138 ) ;
#155 = APPROVAL ( #117, 'UNSPECIFIED' ) ;
#156 = AXIS2_PLACEMENT_3D ( 'NONE', #42, #107, #84 ) ;
#157 = CC_DESIGN_APPROVAL ( #230, ( #61 ) ) ;
#158 = CALENDAR_DATE ( 2021, 26, 11 ) ;
#159 = APPROVAL_DATE_TIME ( #136, #230 ) ;
#160 = EDGE_CURVE ( 'NONE', #182, #182, #45, .T. ) ;
#161 = PERSON_AND_ORGANIZATION ( #31, #86 ) ;
#162 = DIRECTION ( 'NONE',  ( -3.491481338843133355E-15, -5.435068039704610974E-16, -1.000000000000000000 ) ) ;
#163 = PLANE ( 'NONE',  #69 ) ;
#164 = FACE_OUTER_BOUND ( 'NONE', #181, .T. ) ;
#165 = PRODUCT ( '321484', '321484', '', ( #27 ) ) ;
#166 = DIRECTION ( 'NONE',  ( 0.0000000000000000000, 1.000000000000000000, 0.0000000000000000000 ) ) ;
#167 = CC_DESIGN_DATE_AND_TIME_ASSIGNMENT ( #140, #50, ( #138 ) ) ;
#168 = APPROVAL_ROLE ( '' ) ;
#169 = EDGE_LOOP ( 'NONE', ( #216 ) ) ;
#170 = CARTESIAN_POINT ( 'NONE',  ( 4.338544214196613365E-14, -1.122295389782541376E-15, 12.42608449866195031 ) ) ;
#171 = PLANE ( 'NONE',  #96 ) ;
#172 = DIRECTION ( 'NONE',  ( 0.0000000000000000000, 0.0000000000000000000, 1.000000000000000000 ) ) ;
#173 = CONICAL_SURFACE ( 'NONE', #179, 1.999999999999995337, 0.7853981633974516097 ) ;
#174 =( NAMED_UNIT ( * ) PLANE_ANGLE_UNIT ( ) SI_UNIT ( $, .RADIAN. ) );
#175 = DIRECTION ( 'NONE',  ( -1.923277148320588066E-30, 1.000000000000000000, -5.413543905316744113E-16 ) ) ;
#176 = ADVANCED_FACE ( 'NONE', ( #240 ), #242, .T. ) ;
#177 = AXIS2_PLACEMENT_3D ( 'NONE', #101, #83, #23 ) ;
#178 = PERSON_AND_ORGANIZATION ( #31, #86 ) ;
#179 = AXIS2_PLACEMENT_3D ( 'NONE', #200, #183, #198 ) ;
#180 = CC_DESIGN_APPROVAL ( #155, ( #138 ) ) ;
#181 = EDGE_LOOP ( 'NONE', ( #213 ) ) ;
#182 = VERTEX_POINT ( 'NONE', #18 ) ;
#183 = DIRECTION ( 'NONE',  ( -3.491481338843133355E-15, 9.031770143711729009E-17, -1.000000000000000000 ) ) ;
#184 = CARTESIAN_POINT ( 'NONE',  ( 4.338544214196613365E-14, -1.122295389782541376E-15, 12.42608449866195031 ) ) ;
#185 = ORIENTED_EDGE ( 'NONE', *, *, #142, .F. ) ;
#186 = CARTESIAN_POINT ( 'NONE',  ( 4.338544214196612734E-14, 6.753661471734645875E-15, 12.42608449866194853 ) ) ;
#187 = EDGE_LOOP ( 'NONE', ( #6 ) ) ;
#188 = CIRCLE ( 'NONE', #59, 2.903999999999998138 ) ;
#189 = DIRECTION ( 'NONE',  ( 1.000000000000000000, 0.0000000000000000000, 0.0000000000000000000 ) ) ;
#190 = ADVANCED_FACE ( 'NONE', ( #36 ), #37, .T. ) ;
#191 = APPROVAL_ROLE ( '' ) ;
#192 = CC_DESIGN_PERSON_AND_ORGANIZATION_ASSIGNMENT ( #63, #208, ( #165 ) ) ;
#193 = CARTESIAN_POINT ( 'NONE',  ( 2.793185071074506684E-13, 1.599999999999987876, 80.00000000000000000 ) ) ;
#194 = DESIGN_CONTEXT ( 'detailed design', #47, 'design' ) ;
#195 = CC_DESIGN_PERSON_AND_ORGANIZATION_ASSIGNMENT ( #161, #227, ( #61 ) ) ;
#196 = AXIS2_PLACEMENT_3D ( 'NONE', #54, #34, #166 ) ;
#197 = AXIS2_PLACEMENT_3D ( 'NONE', #75, #172, #189 ) ;
#198 = DIRECTION ( 'NONE',  ( 0.0000000000000000000, 1.000000000000000000, 0.0000000000000000000 ) ) ;
#199 = EDGE_CURVE ( 'NONE', #82, #82, #130, .T. ) ;
#200 = CARTESIAN_POINT ( 'NONE',  ( 2.779219145719134403E-13, -7.189289034394536528E-15, 79.60000000000000853 ) ) ;
#201 = CARTESIAN_POINT ( 'NONE',  ( 4.338544214196613996E-14, 6.753661471734646664E-15, 12.42608449866195208 ) ) ;
#202 = ADVANCED_FACE ( 'NONE', ( #150, #72 ), #76, .T. ) ;
#203 = DIRECTION ( 'NONE',  ( -3.491481338843133355E-15, -5.435068039704610974E-16, -1.000000000000000000 ) ) ;
#204 = PRODUCT_RELATED_PRODUCT_CATEGORY ( 'detail', '', ( #165 ) ) ;
#205 = ADVANCED_FACE ( 'NONE', ( #124, #104 ), #237, .T. ) ;
#206 = PERSON_AND_ORGANIZATION_ROLE ( 'creator' ) ;
#207 = PERSON_AND_ORGANIZATION ( #31, #86 ) ;
#208 = PERSON_AND_ORGANIZATION_ROLE ( 'design_owner' ) ;
#209 = AXIS2_PLACEMENT_3D ( 'NONE', #88, #85, #219 ) ;
#210 = CC_DESIGN_APPROVAL ( #93, ( #65 ) ) ;
#211 = APPROVAL_STATUS ( 'not_yet_approved' ) ;
#212 = UNCERTAINTY_MEASURE_WITH_UNIT (LENGTH_MEASURE( 1.000000000000000082E-05 ), #90, 'distance_accuracy_value', 'NONE');
#213 = ORIENTED_EDGE ( 'NONE', *, *, #44, .T. ) ;
#214 = VERTEX_POINT ( 'NONE', #19 ) ;
#215 = DIRECTION ( 'NONE',  ( -3.491481338843133355E-15, 9.031770143711729009E-17, -1.000000000000000000 ) ) ;
#216 = ORIENTED_EDGE ( 'NONE', *, *, #160, .T. ) ;
#217 = EDGE_CURVE ( 'NONE', #234, #234, #74, .T. ) ;
#218 = DIRECTION ( 'NONE',  ( -3.491481338843133355E-15, 9.031770143711729009E-17, -1.000000000000000000 ) ) ;
#219 = DIRECTION ( 'NONE',  ( 1.897643863597138375E-30, -1.000000000000000000, 5.435068039704610974E-16 ) ) ;
#220 = DIRECTION ( 'NONE',  ( -3.491481338843133355E-15, 9.031770143711729009E-17, -1.000000000000000000 ) ) ;
#221 = SHAPE_DEFINITION_REPRESENTATION ( #154, #25 ) ;
#222 = EDGE_LOOP ( 'NONE', ( #87 ) ) ;
#223 = ADVANCED_FACE ( 'NONE', ( #164 ), #163, .T. ) ;
#224 = FACE_OUTER_BOUND ( 'NONE', #169, .T. ) ;
#225 = CYLINDRICAL_SURFACE ( 'NONE', #226, 2.903999999999994586 ) ;
#226 = AXIS2_PLACEMENT_3D ( 'NONE', #2, #134, #111 ) ;
#227 = PERSON_AND_ORGANIZATION_ROLE ( 'creator' ) ;
#228 = APPLICATION_CONTEXT ( 'configuration controlled 3d designs of mechanical parts and assemblies' ) ;
#229 = COORDINATED_UNIVERSAL_TIME_OFFSET ( 1, 0, .AHEAD. ) ;
#230 = APPROVAL ( #211, 'UNSPECIFIED' ) ;
#231 = APPROVAL_DATE_TIME ( #105, #93 ) ;
#232 = DIRECTION ( 'NONE',  ( -1.897643863597138025E-30, 1.000000000000000000, -5.435068039704610974E-16 ) ) ;
#233 = EDGE_LOOP ( 'NONE', ( #121 ) ) ;
#234 = VERTEX_POINT ( 'NONE', #71 ) ;
#235 = ADVANCED_FACE ( 'NONE', ( #122, #70 ), #173, .T. ) ;
#236 = VERTEX_POINT ( 'NONE', #143 ) ;
#237 = CONICAL_SURFACE ( 'NONE', #3, 2.903999999999999471, 0.5235987755982930425 ) ;
#238 = CARTESIAN_POINT ( 'NONE',  ( 4.885231259955589808E-14, -1.263712492114123485E-15, 13.99185842870424956 ) ) ;
#239 = CIRCLE ( 'NONE', #196, 1.599999999999994982 ) ;
#240 = FACE_OUTER_BOUND ( 'NONE', #187, .T. ) ;
#241 = COORDINATED_UNIVERSAL_TIME_OFFSET ( 1, 0, .AHEAD. ) ;
#242 = PLANE ( 'NONE',  #152 ) ;
#243 = EDGE_LOOP ( 'NONE', ( #153 ) ) ;
ENDSEC;
END-ISO-10303-21;
