ISO-10303-21;
HEADER;
FILE_DESCRIPTION (( 'STEP AP203' ),
    '1' );
FILE_NAME ('321483.step',
    '2021-11-26T10:04:17',
    ( '' ),
    ( '' ),
    'SwSTEP 2.0',
    'SolidWorks 2019',
    '' );
FILE_SCHEMA (( 'CONFIG_CONTROL_DESIGN' ));
ENDSEC;

DATA;
#1 = CIRCLE ( 'NONE', #216, 2.898999999999991584 ) ;
#2 = DATE_AND_TIME ( #90, #70 ) ;
#3 = CALENDAR_DATE ( 2021, 26, 11 ) ;
#4 = CC_DESIGN_APPROVAL ( #122, ( #192 ) ) ;
#5 = DATE_AND_TIME ( #225, #23 ) ;
#6 = EDGE_LOOP ( 'NONE', ( #89 ) ) ;
#7 = FACE_OUTER_BOUND ( 'NONE', #84, .T. ) ;
#8 = FACE_OUTER_BOUND ( 'NONE', #217, .T. ) ;
#9 = EDGE_CURVE ( 'NONE', #60, #60, #58, .T. ) ;
#10 = DIRECTION ( 'NONE',  ( -3.491481338843133355E-15, -5.429576927818585940E-16, -1.000000000000000000 ) ) ;
#11 = DIRECTION ( 'NONE',  ( -3.491481338843133355E-15, 9.031770143711729009E-17, -1.000000000000000000 ) ) ;
#12 = CARTESIAN_POINT ( 'NONE',  ( 0.0000000000000000000, 0.0000000000000000000, 0.0000000000000000000 ) ) ;
#13 = CLOSED_SHELL ( 'NONE', ( #61, #106, #164, #228, #36 ) ) ;
#14 = CONICAL_SURFACE ( 'NONE', #135, 2.898999999999999577, 0.5235987755982928205 ) ;
#15 = DIRECTION ( 'NONE',  ( 3.491481338843133355E-15, 5.429576927818585940E-16, 1.000000000000000000 ) ) ;
#16 = EDGE_LOOP ( 'NONE', ( #239 ) ) ;
#17 = CYLINDRICAL_SURFACE ( 'NONE', #22, 2.898999999999994692 ) ;
#18 = APPLICATION_PROTOCOL_DEFINITION ( 'international standard', 'config_control_design', 1994, #50 ) ;
#19 = FACE_OUTER_BOUND ( 'NONE', #114, .T. ) ;
#20 = DIRECTION ( 'NONE',  ( -1.895726652129182801E-30, 1.000000000000000000, -5.429576927818585940E-16 ) ) ;
#21 = DIRECTION ( 'NONE',  ( 1.000000000000000000, 0.0000000000000000000, 0.0000000000000000000 ) ) ;
#22 = AXIS2_PLACEMENT_3D ( 'NONE', #12, #96, #20 ) ;
#23 = LOCAL_TIME ( 11, 4, 17.00000000000000000, #108 ) ;
#24 = CC_DESIGN_PERSON_AND_ORGANIZATION_ASSIGNMENT ( #88, #69, ( #192 ) ) ;
#25 = PRODUCT ( '321483', '321483', '', ( #221 ) ) ;
#26 = PERSON_AND_ORGANIZATION ( #104, #176 ) ;
#27 = DIRECTION ( 'NONE',  ( -3.491481338843133355E-15, 9.031770143711729009E-17, -1.000000000000000000 ) ) ;
#28 = AXIS2_PLACEMENT_3D ( 'NONE', #131, #74, #179 ) ;
#29 = ADVANCED_FACE ( 'NONE', ( #7, #169 ), #17, .T. ) ;
#30 = ORIENTED_EDGE ( 'NONE', *, *, #160, .F. ) ;
#31 = AXIS2_PLACEMENT_3D ( 'NONE', #40, #241, #184 ) ;
#32 = DIRECTION ( 'NONE',  ( 0.0000000000000000000, 1.000000000000000000, 0.0000000000000000000 ) ) ;
#33 = PLANE ( 'NONE',  #28 ) ;
#34 = PLANE ( 'NONE',  #82 ) ;
#35 = APPROVAL_PERSON_ORGANIZATION ( #175, #233, #156 ) ;
#36 = ADVANCED_FACE ( 'NONE', ( #137 ), #203, .T. ) ;
#37 = CARTESIAN_POINT ( 'NONE',  ( 4.341567925732890239E-14, 2.898999999999998245, 12.43474475269979429 ) ) ;
#38 = PRODUCT_DEFINITION ( 'UNKNOWN', '', #163, #187 ) ;
#39 = AXIS2_PLACEMENT_3D ( 'NONE', #54, #10, #168 ) ;
#40 = CARTESIAN_POINT ( 'NONE',  ( 1.396592535537258667E-15, 2.171830771127442610E-16, 0.4000000000000015210 ) ) ;
#41 = CARTESIAN_POINT ( 'NONE',  ( 5.057912247355805758E-30, 7.865522102510647782E-31, 1.448643643340134047E-15 ) ) ;
#42 =( LENGTH_UNIT ( ) NAMED_UNIT ( * ) SI_UNIT ( .MILLI., .METRE. ) );
#43 = PERSON_AND_ORGANIZATION_ROLE ( 'creator' ) ;
#44 = EDGE_LOOP ( 'NONE', ( #234 ) ) ;
#45 = PERSON_AND_ORGANIZATION ( #104, #176 ) ;
#46 = EDGE_LOOP ( 'NONE', ( #30 ) ) ;
#47 = EDGE_CURVE ( 'NONE', #189, #189, #76, .T. ) ;
#48 = APPROVAL_ROLE ( '' ) ;
#49 = CC_DESIGN_SECURITY_CLASSIFICATION ( #192, ( #163 ) ) ;
#50 = APPLICATION_CONTEXT ( 'configuration controlled 3d designs of mechanical parts and assemblies' ) ;
#51 = EDGE_LOOP ( 'NONE', ( #243 ) ) ;
#52 = FACE_OUTER_BOUND ( 'NONE', #46, .T. ) ;
#53 = FACE_OUTER_BOUND ( 'NONE', #51, .T. ) ;
#54 = CARTESIAN_POINT ( 'NONE',  ( 5.057912247355805758E-30, 7.865522102510647782E-31, 1.448643643340134047E-15 ) ) ;
#55 = FACE_BOUND ( 'NONE', #6, .T. ) ;
#56 = ADVANCED_FACE ( 'NONE', ( #113 ), #197, .T. ) ;
#57 = DIRECTION ( 'NONE',  ( -3.491481338843133355E-15, -5.429576927818585940E-16, -1.000000000000000000 ) ) ;
#58 = CIRCLE ( 'NONE', #190, 2.898999999999999577 ) ;
#59 = APPROVAL_PERSON_ORGANIZATION ( #128, #122, #48 ) ;
#60 = VERTEX_POINT ( 'NONE', #123 ) ;
#61 = ADVANCED_FACE ( 'NONE', ( #53 ), #33, .T. ) ;
#62 = ORIENTED_EDGE ( 'NONE', *, *, #9, .F. ) ;
#63 = DIRECTION ( 'NONE',  ( 1.895726652129182100E-30, -1.000000000000000000, 5.429576927818585940E-16 ) ) ;
#64 = AXIS2_PLACEMENT_3D ( 'NONE', #78, #185, #21 ) ;
#65 = CARTESIAN_POINT ( 'NONE',  ( 2.779219145719134403E-13, 1.999999999999988010, 79.60000000000000853 ) ) ;
#66 = CALENDAR_DATE ( 2021, 26, 11 ) ;
#67 = CC_DESIGN_PERSON_AND_ORGANIZATION_ASSIGNMENT ( #101, #136, ( #25 ) ) ;
#68 = PERSON_AND_ORGANIZATION ( #104, #176 ) ;
#69 = PERSON_AND_ORGANIZATION_ROLE ( 'classification_officer' ) ;
#70 = LOCAL_TIME ( 11, 4, 17.00000000000000000, #191 ) ;
#71 = CARTESIAN_POINT ( 'NONE',  ( 4.885231259955589808E-14, -1.263712492114123485E-15, 13.99185842870424956 ) ) ;
#72 = FACE_OUTER_BOUND ( 'NONE', #222, .T. ) ;
#73 = AXIS2_PLACEMENT_3D ( 'NONE', #41, #120, #63 ) ;
#74 = DIRECTION ( 'NONE',  ( 3.491481338843133355E-15, -9.031770143711729009E-17, 1.000000000000000000 ) ) ;
#75 = PRODUCT_RELATED_PRODUCT_CATEGORY ( 'detail', '', ( #25 ) ) ;
#76 = CIRCLE ( 'NONE', #111, 1.599999999999994982 ) ;
#77 = APPROVAL ( #213, 'UNSPECIFIED' ) ;
#78 = CARTESIAN_POINT ( 'NONE',  ( 0.0000000000000000000, 0.0000000000000000000, 0.0000000000000000000 ) ) ;
#79 = DIRECTION ( 'NONE',  ( 0.0000000000000000000, 1.000000000000000000, 0.0000000000000000000 ) ) ;
#80 = APPLICATION_CONTEXT ( 'configuration controlled 3d designs of mechanical parts and assemblies' ) ;
#81 = FACE_BOUND ( 'NONE', #230, .T. ) ;
#82 = AXIS2_PLACEMENT_3D ( 'NONE', #181, #15, #235 ) ;
#83 = PERSON_AND_ORGANIZATION ( #104, #176 ) ;
#84 = EDGE_LOOP ( 'NONE', ( #139 ) ) ;
#85 = DATE_TIME_ROLE ( 'creation_date' ) ;
#86 = CONICAL_SURFACE ( 'NONE', #152, 1.999999999999995337, 0.7853981633974516097 ) ;
#87 = CONICAL_SURFACE ( 'NONE', #73, 2.668059892324149196, 0.5235987755982970393 ) ;
#88 = PERSON_AND_ORGANIZATION ( #104, #176 ) ;
#89 = ORIENTED_EDGE ( 'NONE', *, *, #47, .T. ) ;
#90 = CALENDAR_DATE ( 2021, 26, 11 ) ;
#91 = CARTESIAN_POINT ( 'NONE',  ( 4.341567925732889608E-14, 2.898999999999998245, 12.43474475269979251 ) ) ;
#92 = LOCAL_TIME ( 11, 4, 17.00000000000000000, #129 ) ;
#93 = FACE_OUTER_BOUND ( 'NONE', #107, .T. ) ;
#94 = DIRECTION ( 'NONE',  ( -3.491481338843133355E-15, 9.031770143711729009E-17, -1.000000000000000000 ) ) ;
#95 =( NAMED_UNIT ( * ) PLANE_ANGLE_UNIT ( ) SI_UNIT ( $, .RADIAN. ) );
#96 = DIRECTION ( 'NONE',  ( -3.491481338843133355E-15, -5.429576927818585940E-16, -1.000000000000000000 ) ) ;
#97 = APPROVAL_STATUS ( 'not_yet_approved' ) ;
#98 = VERTEX_POINT ( 'NONE', #209 ) ;
#99 = CIRCLE ( 'NONE', #39, 2.668059892324149196 ) ;
#100 = DIRECTION ( 'NONE',  ( -3.491481338843133355E-15, 9.031770143711729009E-17, -1.000000000000000000 ) ) ;
#101 = PERSON_AND_ORGANIZATION ( #104, #176 ) ;
#102 = EDGE_CURVE ( 'NONE', #150, #150, #171, .T. ) ;
#103 = LOCAL_TIME ( 11, 4, 17.00000000000000000, #141 ) ;
#104 = PERSON ( 'UNSPECIFIED', 'UNSPECIFIED', 'UNSPECIFIED', ('UNSPECIFIED'), ('UNSPECIFIED'), ('UNSPECIFIED') ) ;
#105 = ORIENTED_EDGE ( 'NONE', *, *, #124, .F. ) ;
#106 = ADVANCED_FACE ( 'NONE', ( #55, #52 ), #86, .T. ) ;
#107 = EDGE_LOOP ( 'NONE', ( #196 ) ) ;
#108 = COORDINATED_UNIVERSAL_TIME_OFFSET ( 1, 0, .AHEAD. ) ;
#109 = EDGE_LOOP ( 'NONE', ( #105 ) ) ;
#110 = CARTESIAN_POINT ( 'NONE',  ( 2.779219145719134403E-13, -7.189289034394536528E-15, 79.60000000000000853 ) ) ;
#111 = AXIS2_PLACEMENT_3D ( 'NONE', #116, #94, #143 ) ;
#112 = APPROVAL_PERSON_ORGANIZATION ( #68, #77, #158 ) ;
#113 = FACE_OUTER_BOUND ( 'NONE', #44, .T. ) ;
#114 = EDGE_LOOP ( 'NONE', ( #121 ) ) ;
#115 = CC_DESIGN_PERSON_AND_ORGANIZATION_ASSIGNMENT ( #83, #224, ( #163 ) ) ;
#116 = CARTESIAN_POINT ( 'NONE',  ( 2.793185071074506684E-13, -7.225416114969383207E-15, 80.00000000000000000 ) ) ;
#117 = CARTESIAN_POINT ( 'NONE',  ( 2.779219145719134403E-13, -7.189289034394536528E-15, 79.60000000000000853 ) ) ;
#118 = AXIS2_PLACEMENT_3D ( 'NONE', #166, #199, #178 ) ;
#119 = CC_DESIGN_APPROVAL ( #233, ( #38 ) ) ;
#120 = DIRECTION ( 'NONE',  ( 3.491481338843133355E-15, 5.429576927818585940E-16, 1.000000000000000000 ) ) ;
#121 = ORIENTED_EDGE ( 'NONE', *, *, #208, .T. ) ;
#122 = APPROVAL ( #214, 'UNSPECIFIED' ) ;
#123 = CARTESIAN_POINT ( 'NONE',  ( 4.341567925732890239E-14, 2.898999999999998245, 12.43474475269979429 ) ) ;
#124 = EDGE_CURVE ( 'NONE', #201, #201, #99, .T. ) ;
#125 = SECURITY_CLASSIFICATION_LEVEL ( 'unclassified' ) ;
#126 = CLOSED_SHELL ( 'NONE', ( #173, #29, #240, #56 ) ) ;
#127 = CALENDAR_DATE ( 2021, 26, 11 ) ;
#128 = PERSON_AND_ORGANIZATION ( #104, #176 ) ;
#129 = COORDINATED_UNIVERSAL_TIME_OFFSET ( 1, 0, .AHEAD. ) ;
#130 = DIRECTION ( 'NONE',  ( -3.491481338843133355E-15, 9.031770143711729009E-17, -1.000000000000000000 ) ) ;
#131 = CARTESIAN_POINT ( 'NONE',  ( 2.793185071074506684E-13, -7.225416114969383207E-15, 80.00000000000000000 ) ) ;
#132 = ORIENTED_EDGE ( 'NONE', *, *, #102, .T. ) ;
#133 = AXIS2_PLACEMENT_3D ( 'NONE', #91, #183, #229 ) ;
#134 = DIRECTION ( 'NONE',  ( -2.125897144546110014E-30, 1.000000000000000000, -5.983868492503664082E-16 ) ) ;
#135 = AXIS2_PLACEMENT_3D ( 'NONE', #238, #100, #79 ) ;
#136 = PERSON_AND_ORGANIZATION_ROLE ( 'design_owner' ) ;
#137 = FACE_OUTER_BOUND ( 'NONE', #16, .T. ) ;
#138 = FACE_OUTER_BOUND ( 'NONE', #218, .T. ) ;
#139 = ORIENTED_EDGE ( 'NONE', *, *, #198, .T. ) ;
#140 = CC_DESIGN_DATE_AND_TIME_ASSIGNMENT ( #226, #211, ( #192 ) ) ;
#141 = COORDINATED_UNIVERSAL_TIME_OFFSET ( 1, 0, .AHEAD. ) ;
#142 = COORDINATED_UNIVERSAL_TIME_OFFSET ( 1, 0, .AHEAD. ) ;
#143 = DIRECTION ( 'NONE',  ( 0.0000000000000000000, 1.000000000000000000, 0.0000000000000000000 ) ) ;
#144 = DIRECTION ( 'NONE',  ( -3.491481338843133355E-15, -5.429576927818585940E-16, -1.000000000000000000 ) ) ;
#145 = AXIS2_PLACEMENT_3D ( 'NONE', #71, #195, #32 ) ;
#146 = CARTESIAN_POINT ( 'NONE',  ( 4.341567925732890870E-14, 6.751540321257203675E-15, 12.43474475269979607 ) ) ;
#147 = EDGE_LOOP ( 'NONE', ( #215 ) ) ;
#148 = VERTEX_POINT ( 'NONE', #37 ) ;
#149 = MANIFOLD_SOLID_BREP ( 'Corps-Déplacer/Copier1[2]', #126 ) ;
#150 = VERTEX_POINT ( 'NONE', #154 ) ;
#151 = CC_DESIGN_PERSON_AND_ORGANIZATION_ASSIGNMENT ( #26, #227, ( #163 ) ) ;
#152 = AXIS2_PLACEMENT_3D ( 'NONE', #117, #27, #219 ) ;
#153 = LOCAL_TIME ( 11, 4, 17.00000000000000000, #142 ) ;
#154 = CARTESIAN_POINT ( 'NONE',  ( 4.885231259955589808E-14, 1.999999999999990452, 13.99185842870424956 ) ) ;
#155 = DATE_AND_TIME ( #127, #92 ) ;
#156 = APPROVAL_ROLE ( '' ) ;
#157 = APPROVAL_DATE_TIME ( #155, #122 ) ;
#158 = APPROVAL_ROLE ( '' ) ;
#159 = APPROVAL_DATE_TIME ( #2, #77 ) ;
#160 = EDGE_CURVE ( 'NONE', #170, #170, #206, .T. ) ;
#161 = CARTESIAN_POINT ( 'NONE',  ( 4.341567925732890239E-14, -1.123077564021100869E-15, 12.43474475269979429 ) ) ;
#162 = DIRECTION ( 'NONE',  ( -1.895726652129182450E-30, 1.000000000000000000, -5.429576927818585940E-16 ) ) ;
#163 = PRODUCT_DEFINITION_FORMATION_WITH_SPECIFIED_SOURCE ( 'ANY', '', #25, .NOT_KNOWN. ) ;
#164 = ADVANCED_FACE ( 'NONE', ( #72, #93 ), #180, .T. ) ;
#165 = DIRECTION ( 'NONE',  ( 0.0000000000000000000, 1.000000000000000000, 0.0000000000000000000 ) ) ;
#166 = CARTESIAN_POINT ( 'NONE',  ( 0.0000000000000000000, 0.0000000000000000000, 0.0000000000000000000 ) ) ;
#167 =( GEOMETRIC_REPRESENTATION_CONTEXT ( 3 ) GLOBAL_UNCERTAINTY_ASSIGNED_CONTEXT ( ( #204 ) ) GLOBAL_UNIT_ASSIGNED_CONTEXT ( ( #42, #95, #237 ) ) REPRESENTATION_CONTEXT ( 'NONE', 'WORKASPACE' ) );
#168 = DIRECTION ( 'NONE',  ( -1.895726652129182100E-30, 1.000000000000000000, -5.429576927818585940E-16 ) ) ;
#169 = FACE_OUTER_BOUND ( 'NONE', #147, .T. ) ;
#170 = VERTEX_POINT ( 'NONE', #65 ) ;
#171 = CIRCLE ( 'NONE', #145, 1.999999999999991784 ) ;
#172 = PRODUCT_DEFINITION_SHAPE ( 'NONE', 'NONE',  #38 ) ;
#173 = ADVANCED_FACE ( 'NONE', ( #8 ), #34, .T. ) ;
#174 = ADVANCED_BREP_SHAPE_REPRESENTATION ( '321483', ( #220, #149, #64 ), #167 ) ;
#175 = PERSON_AND_ORGANIZATION ( #104, #176 ) ;
#176 = ORGANIZATION ( 'UNSPECIFIED', 'UNSPECIFIED', '' ) ;
#177 = DIRECTION ( 'NONE',  ( 0.0000000000000000000, 1.000000000000000000, 0.0000000000000000000 ) ) ;
#178 = DIRECTION ( 'NONE',  ( 3.153425691349006731E-31, 1.000000000000000000, 9.031770143711729009E-17 ) ) ;
#179 = DIRECTION ( 'NONE',  ( -3.153425691349006731E-31, -1.000000000000000000, -9.031770143711729009E-17 ) ) ;
#180 = CYLINDRICAL_SURFACE ( 'NONE', #118, 1.999999999999993561 ) ;
#181 = CARTESIAN_POINT ( 'NONE',  ( 4.341567925732889608E-14, 6.751540321257202886E-15, 12.43474475269979251 ) ) ;
#182 = AXIS2_PLACEMENT_3D ( 'NONE', #110, #11, #165 ) ;
#183 = DIRECTION ( 'NONE',  ( -3.491481338843133355E-15, 9.031770143711729009E-17, -1.000000000000000000 ) ) ;
#184 = DIRECTION ( 'NONE',  ( -1.926594287244907821E-30, 1.000000000000000000, -5.422880821331433248E-16 ) ) ;
#185 = DIRECTION ( 'NONE',  ( 0.0000000000000000000, 0.0000000000000000000, 1.000000000000000000 ) ) ;
#186 = CC_DESIGN_PERSON_AND_ORGANIZATION_ASSIGNMENT ( #45, #43, ( #38 ) ) ;
#187 = DESIGN_CONTEXT ( 'detailed design', #50, 'design' ) ;
#188 = APPLICATION_PROTOCOL_DEFINITION ( 'international standard', 'config_control_design', 1994, #80 ) ;
#189 = VERTEX_POINT ( 'NONE', #202 ) ;
#190 = AXIS2_PLACEMENT_3D ( 'NONE', #161, #130, #177 ) ;
#191 = COORDINATED_UNIVERSAL_TIME_OFFSET ( 1, 0, .AHEAD. ) ;
#192 = SECURITY_CLASSIFICATION ( '', '', #125 ) ;
#193 = SHAPE_DEFINITION_REPRESENTATION ( #172, #174 ) ;
#194 = ORIENTED_EDGE ( 'NONE', *, *, #198, .F. ) ;
#195 = DIRECTION ( 'NONE',  ( -3.491481338843133355E-15, 9.031770143711729009E-17, -1.000000000000000000 ) ) ;
#196 = ORIENTED_EDGE ( 'NONE', *, *, #102, .F. ) ;
#197 = PLANE ( 'NONE',  #236 ) ;
#198 = EDGE_CURVE ( 'NONE', #148, #148, #1, .T. ) ;
#199 = DIRECTION ( 'NONE',  ( -3.491481338843133355E-15, 9.031770143711729009E-17, -1.000000000000000000 ) ) ;
#200 = CC_DESIGN_DATE_AND_TIME_ASSIGNMENT ( #5, #85, ( #38 ) ) ;
#201 = VERTEX_POINT ( 'NONE', #223 ) ;
#202 = CARTESIAN_POINT ( 'NONE',  ( 2.793185071074506684E-13, 1.599999999999987876, 80.00000000000000000 ) ) ;
#203 = PLANE ( 'NONE',  #133 ) ;
#204 = UNCERTAINTY_MEASURE_WITH_UNIT (LENGTH_MEASURE( 1.000000000000000082E-05 ), #42, 'distance_accuracy_value', 'NONE');
#205 = FACE_BOUND ( 'NONE', #109, .T. ) ;
#206 = CIRCLE ( 'NONE', #182, 1.999999999999995337 ) ;
#207 = CIRCLE ( 'NONE', #31, 2.898999999999998245 ) ;
#208 = EDGE_CURVE ( 'NONE', #98, #98, #207, .T. ) ;
#209 = CARTESIAN_POINT ( 'NONE',  ( 1.396592535537253145E-15, 2.898999999999998689, 0.3999999999999999667 ) ) ;
#210 = DATE_AND_TIME ( #66, #103 ) ;
#211 = DATE_TIME_ROLE ( 'classification_date' ) ;
#212 = CC_DESIGN_APPROVAL ( #77, ( #163 ) ) ;
#213 = APPROVAL_STATUS ( 'not_yet_approved' ) ;
#214 = APPROVAL_STATUS ( 'not_yet_approved' ) ;
#215 = ORIENTED_EDGE ( 'NONE', *, *, #208, .F. ) ;
#216 = AXIS2_PLACEMENT_3D ( 'NONE', #146, #57, #134 ) ;
#217 = EDGE_LOOP ( 'NONE', ( #194 ) ) ;
#218 = EDGE_LOOP ( 'NONE', ( #62 ) ) ;
#219 = DIRECTION ( 'NONE',  ( 0.0000000000000000000, 1.000000000000000000, 0.0000000000000000000 ) ) ;
#220 = MANIFOLD_SOLID_BREP ( 'Corps-Déplacer/Copier1[1]', #13 ) ;
#221 = MECHANICAL_CONTEXT ( 'NONE', #80, 'mechanical' ) ;
#222 = EDGE_LOOP ( 'NONE', ( #231 ) ) ;
#223 = CARTESIAN_POINT ( 'NONE',  ( 0.0000000000000000000, 2.668059892324149196, 0.0000000000000000000 ) ) ;
#224 = PERSON_AND_ORGANIZATION_ROLE ( 'design_supplier' ) ;
#225 = CALENDAR_DATE ( 2021, 26, 11 ) ;
#226 = DATE_AND_TIME ( #3, #153 ) ;
#227 = PERSON_AND_ORGANIZATION_ROLE ( 'creator' ) ;
#228 = ADVANCED_FACE ( 'NONE', ( #81, #138 ), #14, .T. ) ;
#229 = DIRECTION ( 'NONE',  ( 3.153425691349006731E-31, 1.000000000000000000, 9.031770143711729009E-17 ) ) ;
#230 = EDGE_LOOP ( 'NONE', ( #132 ) ) ;
#231 = ORIENTED_EDGE ( 'NONE', *, *, #160, .T. ) ;
#232 = CARTESIAN_POINT ( 'NONE',  ( -2.528956123677902879E-30, 2.668059892324149196, -7.243218216700670233E-16 ) ) ;
#233 = APPROVAL ( #97, 'UNSPECIFIED' ) ;
#234 = ORIENTED_EDGE ( 'NONE', *, *, #124, .T. ) ;
#235 = DIRECTION ( 'NONE',  ( 1.895726652129182450E-30, -1.000000000000000000, 5.429576927818585940E-16 ) ) ;
#236 = AXIS2_PLACEMENT_3D ( 'NONE', #232, #144, #162 ) ;
#237 =( NAMED_UNIT ( * ) SI_UNIT ( $, .STERADIAN. ) SOLID_ANGLE_UNIT ( ) );
#238 = CARTESIAN_POINT ( 'NONE',  ( 4.341567925732890239E-14, -1.123077564021100869E-15, 12.43474475269979429 ) ) ;
#239 = ORIENTED_EDGE ( 'NONE', *, *, #9, .T. ) ;
#240 = ADVANCED_FACE ( 'NONE', ( #19, #205 ), #87, .T. ) ;
#241 = DIRECTION ( 'NONE',  ( -3.491481338843133355E-15, -5.429576927818585940E-16, -1.000000000000000000 ) ) ;
#242 = APPROVAL_DATE_TIME ( #210, #233 ) ;
#243 = ORIENTED_EDGE ( 'NONE', *, *, #47, .F. ) ;
ENDSEC;
END-ISO-10303-21;
