ISO-10303-21;
HEADER;
FILE_DESCRIPTION (( 'STEP AP203' ),
    '1' );
FILE_NAME ('321482.step',
    '2021-11-26T10:04:16',
    ( '' ),
    ( '' ),
    'SwSTEP 2.0',
    'SolidWorks 2019',
    '' );
FILE_SCHEMA (( 'CONFIG_CONTROL_DESIGN' ));
ENDSEC;

DATA;
#1 = APPROVAL_DATE_TIME ( #125, #63 ) ;
#2 = CALENDAR_DATE ( 2021, 26, 11 ) ;
#3 = PERSON_AND_ORGANIZATION ( #215, #28 ) ;
#4 = DATE_AND_TIME ( #103, #112 ) ;
#5 = CARTESIAN_POINT ( 'NONE',  ( 2.779219145719134403E-13, -7.189289034394536528E-15, 79.60000000000000853 ) ) ;
#6 = DIRECTION ( 'NONE',  ( 0.0000000000000000000, 0.0000000000000000000, 1.000000000000000000 ) ) ;
#7 = AXIS2_PLACEMENT_3D ( 'NONE', #19, #218, #35 ) ;
#8 = PLANE ( 'NONE',  #23 ) ;
#9 = DIRECTION ( 'NONE',  ( -3.491481338843133355E-15, -5.424093459246231687E-16, -1.000000000000000000 ) ) ;
#10 = ADVANCED_FACE ( 'NONE', ( #120, #154 ), #236, .T. ) ;
#11 = DIRECTION ( 'NONE',  ( 3.491481338843133355E-15, -9.031770143711729009E-17, 1.000000000000000000 ) ) ;
#12 = CIRCLE ( 'NONE', #56, 2.893999999999991690 ) ;
#13 = VERTEX_POINT ( 'NONE', #219 ) ;
#14 = FACE_BOUND ( 'NONE', #39, .T. ) ;
#15 = PERSON_AND_ORGANIZATION_ROLE ( 'design_owner' ) ;
#16 = DIRECTION ( 'NONE',  ( -1.893812109309931628E-30, 1.000000000000000000, -5.424093459246231687E-16 ) ) ;
#17 = EDGE_LOOP ( 'NONE', ( #111 ) ) ;
#18 = PERSON_AND_ORGANIZATION ( #215, #28 ) ;
#19 = CARTESIAN_POINT ( 'NONE',  ( 4.344591637269169005E-14, 6.749419170779744909E-15, 12.44340500673764183 ) ) ;
#20 = AXIS2_PLACEMENT_3D ( 'NONE', #234, #77, #237 ) ;
#21 = CARTESIAN_POINT ( 'NONE',  ( 0.0000000000000000000, 2.663059892324149303, 0.0000000000000000000 ) ) ;
#22 = EDGE_CURVE ( 'NONE', #53, #53, #197, .T. ) ;
#23 = AXIS2_PLACEMENT_3D ( 'NONE', #67, #159, #16 ) ;
#24 = APPROVAL_ROLE ( '' ) ;
#25 = CC_DESIGN_PERSON_AND_ORGANIZATION_ASSIGNMENT ( #27, #126, ( #97 ) ) ;
#26 = APPROVAL_STATUS ( 'not_yet_approved' ) ;
#27 = PERSON_AND_ORGANIZATION ( #215, #28 ) ;
#28 = ORGANIZATION ( 'UNSPECIFIED', 'UNSPECIFIED', '' ) ;
#29 = CARTESIAN_POINT ( 'NONE',  ( 4.885231259955589808E-14, -1.263712492114123485E-15, 13.99185842870424956 ) ) ;
#30 = DATE_AND_TIME ( #124, #82 ) ;
#31 = DIRECTION ( 'NONE',  ( -3.491481338843133355E-15, 9.031770143711729009E-17, -1.000000000000000000 ) ) ;
#32 = AXIS2_PLACEMENT_3D ( 'NONE', #216, #50, #89 ) ;
#33 =( NAMED_UNIT ( * ) SI_UNIT ( $, .STERADIAN. ) SOLID_ANGLE_UNIT ( ) );
#34 = ADVANCED_FACE ( 'NONE', ( #122, #14 ), #131, .T. ) ;
#35 = DIRECTION ( 'NONE',  ( 1.893812109309931628E-30, -1.000000000000000000, 5.424093459246231687E-16 ) ) ;
#36 = MANIFOLD_SOLID_BREP ( 'Corps-Déplacer/Copier1[1]', #167 ) ;
#37 = CONICAL_SURFACE ( 'NONE', #32, 2.893999999999999684, 0.5235987755982930425 ) ;
#38 = CARTESIAN_POINT ( 'NONE',  ( 2.779219145719134403E-13, -7.189289034394536528E-15, 79.60000000000000853 ) ) ;
#39 = EDGE_LOOP ( 'NONE', ( #96 ) ) ;
#40 = EDGE_CURVE ( 'NONE', #151, #151, #242, .T. ) ;
#41 = ORIENTED_EDGE ( 'NONE', *, *, #188, .T. ) ;
#42 = ORIENTED_EDGE ( 'NONE', *, *, #156, .F. ) ;
#43 = DIRECTION ( 'NONE',  ( -3.491481338843133355E-15, -5.424093459246231687E-16, -1.000000000000000000 ) ) ;
#44 =( NAMED_UNIT ( * ) PLANE_ANGLE_UNIT ( ) SI_UNIT ( $, .RADIAN. ) );
#45 = CIRCLE ( 'NONE', #207, 2.893999999999999684 ) ;
#46 = DATE_AND_TIME ( #142, #205 ) ;
#47 = CARTESIAN_POINT ( 'NONE',  ( 4.344591637269168374E-14, 2.893999999999998352, 12.44340500673764005 ) ) ;
#48 = SHAPE_DEFINITION_REPRESENTATION ( #140, #101 ) ;
#49 = CC_DESIGN_PERSON_AND_ORGANIZATION_ASSIGNMENT ( #18, #15, ( #173 ) ) ;
#50 = DIRECTION ( 'NONE',  ( -3.491481338843133355E-15, 9.031770143711729009E-17, -1.000000000000000000 ) ) ;
#51 = PERSON_AND_ORGANIZATION ( #215, #28 ) ;
#52 = MECHANICAL_CONTEXT ( 'NONE', #78, 'mechanical' ) ;
#53 = VERTEX_POINT ( 'NONE', #21 ) ;
#54 = FACE_OUTER_BOUND ( 'NONE', #150, .T. ) ;
#55 = EDGE_LOOP ( 'NONE', ( #195 ) ) ;
#56 = AXIS2_PLACEMENT_3D ( 'NONE', #166, #147, #213 ) ;
#57 = ORIENTED_EDGE ( 'NONE', *, *, #121, .F. ) ;
#58 = ORIENTED_EDGE ( 'NONE', *, *, #40, .F. ) ;
#59 = APPROVAL ( #26, 'UNSPECIFIED' ) ;
#60 = CARTESIAN_POINT ( 'NONE',  ( 4.344591637269168374E-14, 2.893999999999998352, 12.44340500673764005 ) ) ;
#61 = CC_DESIGN_SECURITY_CLASSIFICATION ( #200, ( #97 ) ) ;
#62 = ORIENTED_EDGE ( 'NONE', *, *, #141, .F. ) ;
#63 = APPROVAL ( #203, 'UNSPECIFIED' ) ;
#64 = COORDINATED_UNIVERSAL_TIME_OFFSET ( 1, 0, .AHEAD. ) ;
#65 = CC_DESIGN_APPROVAL ( #63, ( #104 ) ) ;
#66 = PERSON_AND_ORGANIZATION_ROLE ( 'creator' ) ;
#67 = CARTESIAN_POINT ( 'NONE',  ( -2.521667535950538000E-30, 2.663059892324149303, -7.222342871768195833E-16 ) ) ;
#68 = FACE_OUTER_BOUND ( 'NONE', #186, .T. ) ;
#69 = DATE_TIME_ROLE ( 'classification_date' ) ;
#70 = CC_DESIGN_APPROVAL ( #59, ( #97 ) ) ;
#71 = APPROVAL_DATE_TIME ( #177, #194 ) ;
#72 = DIRECTION ( 'NONE',  ( -1.893812109309931278E-30, 1.000000000000000000, -5.424093459246231687E-16 ) ) ;
#73 = ORIENTED_EDGE ( 'NONE', *, *, #40, .T. ) ;
#74 = DIRECTION ( 'NONE',  ( 3.153425691349006731E-31, 1.000000000000000000, 9.031770143711729009E-17 ) ) ;
#75 = LOCAL_TIME ( 11, 4, 16.00000000000000000, #129 ) ;
#76 = EDGE_LOOP ( 'NONE', ( #90 ) ) ;
#77 = DIRECTION ( 'NONE',  ( -3.491481338843133355E-15, -5.424093459246231687E-16, -1.000000000000000000 ) ) ;
#78 = APPLICATION_CONTEXT ( 'configuration controlled 3d designs of mechanical parts and assemblies' ) ;
#79 = DIRECTION ( 'NONE',  ( -3.491481338843133355E-15, 9.031770143711729009E-17, -1.000000000000000000 ) ) ;
#80 = DIRECTION ( 'NONE',  ( 0.0000000000000000000, 1.000000000000000000, 0.0000000000000000000 ) ) ;
#81 = FACE_BOUND ( 'NONE', #206, .T. ) ;
#82 = LOCAL_TIME ( 11, 4, 16.00000000000000000, #145 ) ;
#83 = EDGE_LOOP ( 'NONE', ( #204 ) ) ;
#84 = APPLICATION_CONTEXT ( 'configuration controlled 3d designs of mechanical parts and assemblies' ) ;
#85 = CIRCLE ( 'NONE', #172, 1.599999999999994982 ) ;
#86 = VERTEX_POINT ( 'NONE', #102 ) ;
#87 = PERSON_AND_ORGANIZATION_ROLE ( 'classification_officer' ) ;
#88 = APPROVAL_PERSON_ORGANIZATION ( #137, #63, #209 ) ;
#89 = DIRECTION ( 'NONE',  ( 0.0000000000000000000, 1.000000000000000000, 0.0000000000000000000 ) ) ;
#90 = ORIENTED_EDGE ( 'NONE', *, *, #22, .T. ) ;
#91 = DIRECTION ( 'NONE',  ( 0.0000000000000000000, 1.000000000000000000, 0.0000000000000000000 ) ) ;
#92 = CC_DESIGN_PERSON_AND_ORGANIZATION_ASSIGNMENT ( #107, #105, ( #97 ) ) ;
#93 = EDGE_LOOP ( 'NONE', ( #62 ) ) ;
#94 = APPLICATION_PROTOCOL_DEFINITION ( 'international standard', 'config_control_design', 1994, #84 ) ;
#95 = FACE_OUTER_BOUND ( 'NONE', #55, .T. ) ;
#96 = ORIENTED_EDGE ( 'NONE', *, *, #22, .F. ) ;
#97 = PRODUCT_DEFINITION_FORMATION_WITH_SPECIFIED_SOURCE ( 'ANY', '', #173, .NOT_KNOWN. ) ;
#98 = DIRECTION ( 'NONE',  ( 1.893812109309931278E-30, -1.000000000000000000, 5.424093459246231687E-16 ) ) ;
#99 = CARTESIAN_POINT ( 'NONE',  ( 4.344591637269168374E-14, -1.123859738259660560E-15, 12.44340500673764005 ) ) ;
#100 = PERSON_AND_ORGANIZATION ( #215, #28 ) ;
#101 = ADVANCED_BREP_SHAPE_REPRESENTATION ( '321482', ( #36, #193, #208 ), #117 ) ;
#102 = CARTESIAN_POINT ( 'NONE',  ( 2.779219145719134403E-13, 1.999999999999988010, 79.60000000000000853 ) ) ;
#103 = CALENDAR_DATE ( 2021, 26, 11 ) ;
#104 = PRODUCT_DEFINITION ( 'UNKNOWN', '', #97, #169 ) ;
#105 = PERSON_AND_ORGANIZATION_ROLE ( 'design_supplier' ) ;
#106 = CC_DESIGN_APPROVAL ( #194, ( #200 ) ) ;
#107 = PERSON_AND_ORGANIZATION ( #215, #28 ) ;
#108 = DIRECTION ( 'NONE',  ( -3.153425691349006731E-31, -1.000000000000000000, -9.031770143711729009E-17 ) ) ;
#109 = ADVANCED_FACE ( 'NONE', ( #81, #118 ), #143, .T. ) ;
#110 = APPROVAL_ROLE ( '' ) ;
#111 = ORIENTED_EDGE ( 'NONE', *, *, #239, .T. ) ;
#112 = LOCAL_TIME ( 11, 4, 16.00000000000000000, #161 ) ;
#113 = ORIENTED_EDGE ( 'NONE', *, *, #141, .T. ) ;
#114 = CLOSED_SHELL ( 'NONE', ( #148, #221, #34, #115 ) ) ;
#115 = ADVANCED_FACE ( 'NONE', ( #138 ), #8, .T. ) ;
#116 = DIRECTION ( 'NONE',  ( 3.491481338843133355E-15, 5.424093459246231687E-16, 1.000000000000000000 ) ) ;
#117 =( GEOMETRIC_REPRESENTATION_CONTEXT ( 3 ) GLOBAL_UNCERTAINTY_ASSIGNED_CONTEXT ( ( #123 ) ) GLOBAL_UNIT_ASSIGNED_CONTEXT ( ( #212, #44, #33 ) ) REPRESENTATION_CONTEXT ( 'NONE', 'WORKASPACE' ) );
#118 = FACE_OUTER_BOUND ( 'NONE', #171, .T. ) ;
#119 = VERTEX_POINT ( 'NONE', #232 ) ;
#120 = FACE_OUTER_BOUND ( 'NONE', #136, .T. ) ;
#121 = EDGE_CURVE ( 'NONE', #238, #238, #45, .T. ) ;
#122 = FACE_OUTER_BOUND ( 'NONE', #201, .T. ) ;
#123 = UNCERTAINTY_MEASURE_WITH_UNIT (LENGTH_MEASURE( 1.000000000000000082E-05 ), #212, 'distance_accuracy_value', 'NONE');
#124 = CALENDAR_DATE ( 2021, 26, 11 ) ;
#125 = DATE_AND_TIME ( #2, #127 ) ;
#126 = PERSON_AND_ORGANIZATION_ROLE ( 'creator' ) ;
#127 = LOCAL_TIME ( 11, 4, 16.00000000000000000, #211 ) ;
#128 = CARTESIAN_POINT ( 'NONE',  ( 2.793185071074506684E-13, -7.225416114969383207E-15, 80.00000000000000000 ) ) ;
#129 = COORDINATED_UNIVERSAL_TIME_OFFSET ( 1, 0, .AHEAD. ) ;
#130 = CYLINDRICAL_SURFACE ( 'NONE', #235, 2.893999999999995243 ) ;
#131 = CONICAL_SURFACE ( 'NONE', #225, 2.663059892324149303, 0.5235987755982970393 ) ;
#132 = DIRECTION ( 'NONE',  ( -3.491481338843133355E-15, 9.031770143711729009E-17, -1.000000000000000000 ) ) ;
#133 = ORIENTED_EDGE ( 'NONE', *, *, #188, .F. ) ;
#134 = CC_DESIGN_PERSON_AND_ORGANIZATION_ASSIGNMENT ( #3, #87, ( #200 ) ) ;
#135 = DIRECTION ( 'NONE',  ( -3.491481338843133355E-15, 9.031770143711729009E-17, -1.000000000000000000 ) ) ;
#136 = EDGE_LOOP ( 'NONE', ( #41 ) ) ;
#137 = PERSON_AND_ORGANIZATION ( #215, #28 ) ;
#138 = FACE_OUTER_BOUND ( 'NONE', #76, .T. ) ;
#139 = AXIS2_PLACEMENT_3D ( 'NONE', #191, #79, #220 ) ;
#140 = PRODUCT_DEFINITION_SHAPE ( 'NONE', 'NONE',  #104 ) ;
#141 = EDGE_CURVE ( 'NONE', #119, #119, #85, .T. ) ;
#142 = CALENDAR_DATE ( 2021, 26, 11 ) ;
#143 = CONICAL_SURFACE ( 'NONE', #153, 1.999999999999995337, 0.7853981633974516097 ) ;
#144 = SECURITY_CLASSIFICATION_LEVEL ( 'unclassified' ) ;
#145 = COORDINATED_UNIVERSAL_TIME_OFFSET ( 1, 0, .AHEAD. ) ;
#146 = DIRECTION ( 'NONE',  ( 0.0000000000000000000, 1.000000000000000000, 0.0000000000000000000 ) ) ;
#147 = DIRECTION ( 'NONE',  ( -3.491481338843133355E-15, -5.424093459246231687E-16, -1.000000000000000000 ) ) ;
#148 = ADVANCED_FACE ( 'NONE', ( #95 ), #187, .T. ) ;
#149 = FACE_OUTER_BOUND ( 'NONE', #241, .T. ) ;
#150 = EDGE_LOOP ( 'NONE', ( #158 ) ) ;
#151 = VERTEX_POINT ( 'NONE', #175 ) ;
#152 = DIRECTION ( 'NONE',  ( 0.0000000000000000000, 1.000000000000000000, 0.0000000000000000000 ) ) ;
#153 = AXIS2_PLACEMENT_3D ( 'NONE', #38, #155, #152 ) ;
#154 = FACE_OUTER_BOUND ( 'NONE', #182, .T. ) ;
#155 = DIRECTION ( 'NONE',  ( -3.491481338843133355E-15, 9.031770143711729009E-17, -1.000000000000000000 ) ) ;
#156 = EDGE_CURVE ( 'NONE', #13, #13, #181, .T. ) ;
#157 = APPROVAL_PERSON_ORGANIZATION ( #100, #59, #24 ) ;
#158 = ORIENTED_EDGE ( 'NONE', *, *, #121, .T. ) ;
#159 = DIRECTION ( 'NONE',  ( -3.491481338843133355E-15, -5.424093459246231687E-16, -1.000000000000000000 ) ) ;
#160 = PRODUCT_RELATED_PRODUCT_CATEGORY ( 'detail', '', ( #173 ) ) ;
#161 = COORDINATED_UNIVERSAL_TIME_OFFSET ( 1, 0, .AHEAD. ) ;
#162 = AXIS2_PLACEMENT_3D ( 'NONE', #29, #31, #91 ) ;
#163 = CALENDAR_DATE ( 2021, 26, 11 ) ;
#164 = CARTESIAN_POINT ( 'NONE',  ( 4.344591637269169005E-14, 2.893999999999998352, 12.44340500673764183 ) ) ;
#165 = AXIS2_PLACEMENT_3D ( 'NONE', #164, #229, #74 ) ;
#166 = CARTESIAN_POINT ( 'NONE',  ( 4.344591637269169005E-14, 6.749419170779744909E-15, 12.44340500673764183 ) ) ;
#167 = CLOSED_SHELL ( 'NONE', ( #199, #109, #10, #233, #174 ) ) ;
#168 = FACE_OUTER_BOUND ( 'NONE', #17, .T. ) ;
#169 = DESIGN_CONTEXT ( 'detailed design', #84, 'design' ) ;
#170 = CARTESIAN_POINT ( 'NONE',  ( 5.043335071901075999E-30, 7.834932546238302624E-31, 1.444468574353639167E-15 ) ) ;
#171 = EDGE_LOOP ( 'NONE', ( #133 ) ) ;
#172 = AXIS2_PLACEMENT_3D ( 'NONE', #185, #176, #240 ) ;
#173 = PRODUCT ( '321482', '321482', '', ( #52 ) ) ;
#174 = ADVANCED_FACE ( 'NONE', ( #54 ), #183, .T. ) ;
#175 = CARTESIAN_POINT ( 'NONE',  ( 1.396592535537253342E-15, 2.893999999999998796, 0.3999999999999999667 ) ) ;
#176 = DIRECTION ( 'NONE',  ( -3.491481338843133355E-15, 9.031770143711729009E-17, -1.000000000000000000 ) ) ;
#177 = DATE_AND_TIME ( #163, #75 ) ;
#178 = APPROVAL_PERSON_ORGANIZATION ( #180, #194, #110 ) ;
#179 = CC_DESIGN_DATE_AND_TIME_ASSIGNMENT ( #30, #69, ( #200 ) ) ;
#180 = PERSON_AND_ORGANIZATION ( #215, #28 ) ;
#181 = CIRCLE ( 'NONE', #162, 1.999999999999991784 ) ;
#182 = EDGE_LOOP ( 'NONE', ( #42 ) ) ;
#183 = PLANE ( 'NONE',  #165 ) ;
#184 = CIRCLE ( 'NONE', #190, 1.999999999999995337 ) ;
#185 = CARTESIAN_POINT ( 'NONE',  ( 2.793185071074506684E-13, -7.225416114969383207E-15, 80.00000000000000000 ) ) ;
#186 = EDGE_LOOP ( 'NONE', ( #57 ) ) ;
#187 = PLANE ( 'NONE',  #7 ) ;
#188 = EDGE_CURVE ( 'NONE', #86, #86, #184, .T. ) ;
#189 = CARTESIAN_POINT ( 'NONE',  ( 5.043335071901075999E-30, 7.834932546238302624E-31, 1.444468574353639167E-15 ) ) ;
#190 = AXIS2_PLACEMENT_3D ( 'NONE', #5, #132, #146 ) ;
#191 = CARTESIAN_POINT ( 'NONE',  ( 0.0000000000000000000, 0.0000000000000000000, 0.0000000000000000000 ) ) ;
#192 = APPROVAL_DATE_TIME ( #46, #59 ) ;
#193 = MANIFOLD_SOLID_BREP ( 'Corps-Déplacer/Copier1[2]', #114 ) ;
#194 = APPROVAL ( #224, 'UNSPECIFIED' ) ;
#195 = ORIENTED_EDGE ( 'NONE', *, *, #239, .F. ) ;
#196 = APPLICATION_PROTOCOL_DEFINITION ( 'international standard', 'config_control_design', 1994, #78 ) ;
#197 = CIRCLE ( 'NONE', #222, 2.663059892324149303 ) ;
#198 = FACE_BOUND ( 'NONE', #83, .T. ) ;
#199 = ADVANCED_FACE ( 'NONE', ( #210 ), #214, .T. ) ;
#200 = SECURITY_CLASSIFICATION ( '', '', #144 ) ;
#201 = EDGE_LOOP ( 'NONE', ( #73 ) ) ;
#202 = DIRECTION ( 'NONE',  ( -1.893812109309931278E-30, 1.000000000000000000, -5.424093459246231687E-16 ) ) ;
#203 = APPROVAL_STATUS ( 'not_yet_approved' ) ;
#204 = ORIENTED_EDGE ( 'NONE', *, *, #156, .T. ) ;
#205 = LOCAL_TIME ( 11, 4, 16.00000000000000000, #64 ) ;
#206 = EDGE_LOOP ( 'NONE', ( #113 ) ) ;
#207 = AXIS2_PLACEMENT_3D ( 'NONE', #99, #135, #80 ) ;
#208 = AXIS2_PLACEMENT_3D ( 'NONE', #227, #6, #228 ) ;
#209 = APPROVAL_ROLE ( '' ) ;
#210 = FACE_OUTER_BOUND ( 'NONE', #93, .T. ) ;
#211 = COORDINATED_UNIVERSAL_TIME_OFFSET ( 1, 0, .AHEAD. ) ;
#212 =( LENGTH_UNIT ( ) NAMED_UNIT ( * ) SI_UNIT ( .MILLI., .METRE. ) );
#213 = DIRECTION ( 'NONE',  ( -2.129570083634821150E-30, 1.000000000000000000, -5.994206896948210333E-16 ) ) ;
#214 = PLANE ( 'NONE',  #231 ) ;
#215 = PERSON ( 'UNSPECIFIED', 'UNSPECIFIED', 'UNSPECIFIED', ('UNSPECIFIED'), ('UNSPECIFIED'), ('UNSPECIFIED') ) ;
#216 = CARTESIAN_POINT ( 'NONE',  ( 4.344591637269168374E-14, -1.123859738259660560E-15, 12.44340500673764005 ) ) ;
#217 = CC_DESIGN_DATE_AND_TIME_ASSIGNMENT ( #4, #223, ( #104 ) ) ;
#218 = DIRECTION ( 'NONE',  ( 3.491481338843133355E-15, 5.424093459246231687E-16, 1.000000000000000000 ) ) ;
#219 = CARTESIAN_POINT ( 'NONE',  ( 4.885231259955589808E-14, 1.999999999999990452, 13.99185842870424956 ) ) ;
#220 = DIRECTION ( 'NONE',  ( 3.153425691349006731E-31, 1.000000000000000000, 9.031770143711729009E-17 ) ) ;
#221 = ADVANCED_FACE ( 'NONE', ( #168, #149 ), #130, .T. ) ;
#222 = AXIS2_PLACEMENT_3D ( 'NONE', #189, #43, #202 ) ;
#223 = DATE_TIME_ROLE ( 'creation_date' ) ;
#224 = APPROVAL_STATUS ( 'not_yet_approved' ) ;
#225 = AXIS2_PLACEMENT_3D ( 'NONE', #170, #116, #98 ) ;
#226 = CARTESIAN_POINT ( 'NONE',  ( 0.0000000000000000000, 0.0000000000000000000, 0.0000000000000000000 ) ) ;
#227 = CARTESIAN_POINT ( 'NONE',  ( 0.0000000000000000000, 0.0000000000000000000, 0.0000000000000000000 ) ) ;
#228 = DIRECTION ( 'NONE',  ( 1.000000000000000000, 0.0000000000000000000, 0.0000000000000000000 ) ) ;
#229 = DIRECTION ( 'NONE',  ( -3.491481338843133355E-15, 9.031770143711729009E-17, -1.000000000000000000 ) ) ;
#230 = CC_DESIGN_PERSON_AND_ORGANIZATION_ASSIGNMENT ( #51, #66, ( #104 ) ) ;
#231 = AXIS2_PLACEMENT_3D ( 'NONE', #128, #11, #108 ) ;
#232 = CARTESIAN_POINT ( 'NONE',  ( 2.793185071074506684E-13, 1.599999999999987876, 80.00000000000000000 ) ) ;
#233 = ADVANCED_FACE ( 'NONE', ( #198, #68 ), #37, .T. ) ;
#234 = CARTESIAN_POINT ( 'NONE',  ( 1.396592535537258667E-15, 2.169637383698501204E-16, 0.4000000000000015210 ) ) ;
#235 = AXIS2_PLACEMENT_3D ( 'NONE', #226, #9, #72 ) ;
#236 = CYLINDRICAL_SURFACE ( 'NONE', #139, 1.999999999999993561 ) ;
#237 = DIRECTION ( 'NONE',  ( -1.863373823180464346E-30, 1.000000000000000000, -5.432250000359303134E-16 ) ) ;
#238 = VERTEX_POINT ( 'NONE', #60 ) ;
#239 = EDGE_CURVE ( 'NONE', #243, #243, #12, .T. ) ;
#240 = DIRECTION ( 'NONE',  ( 0.0000000000000000000, 1.000000000000000000, 0.0000000000000000000 ) ) ;
#241 = EDGE_LOOP ( 'NONE', ( #58 ) ) ;
#242 = CIRCLE ( 'NONE', #20, 2.893999999999998352 ) ;
#243 = VERTEX_POINT ( 'NONE', #47 ) ;
ENDSEC;
END-ISO-10303-21;
