ISO-10303-21;
HEADER;
FILE_DESCRIPTION (( 'STEP AP203' ),
    '1' );
FILE_NAME ('321481.step',
    '2021-11-26T10:04:16',
    ( '' ),
    ( '' ),
    'SwSTEP 2.0',
    'SolidWorks 2019',
    '' );
FILE_SCHEMA (( 'CONFIG_CONTROL_DESIGN' ));
ENDSEC;

DATA;
#1 = ORIENTED_EDGE ( 'NONE', *, *, #200, .T. ) ;
#2 = UNCERTAINTY_MEASURE_WITH_UNIT (LENGTH_MEASURE( 1.000000000000000082E-05 ), #26, 'distance_accuracy_value', 'NONE');
#3 = DIRECTION ( 'NONE',  ( 0.0000000000000000000, 1.000000000000000000, 0.0000000000000000000 ) ) ;
#4 = DIRECTION ( 'NONE',  ( 3.153425691349006731E-31, 1.000000000000000000, 9.031770143711729009E-17 ) ) ;
#5 = MECHANICAL_CONTEXT ( 'NONE', #237, 'mechanical' ) ;
#6 = CARTESIAN_POINT ( 'NONE',  ( -2.514392060251239545E-30, 2.658059892324148521, -7.201505081176684100E-16 ) ) ;
#7 = APPROVAL_ROLE ( '' ) ;
#8 = DIRECTION ( 'NONE',  ( -1.891900229571359390E-30, 1.000000000000000000, -5.418617618040087027E-16 ) ) ;
#9 = COORDINATED_UNIVERSAL_TIME_OFFSET ( 1, 0, .AHEAD. ) ;
#10 = FACE_OUTER_BOUND ( 'NONE', #57, .T. ) ;
#11 = DATE_TIME_ROLE ( 'creation_date' ) ;
#12 = CLOSED_SHELL ( 'NONE', ( #241, #93, #58, #199, #43 ) ) ;
#13 = CC_DESIGN_PERSON_AND_ORGANIZATION_ASSIGNMENT ( #31, #104, ( #162 ) ) ;
#14 = PERSON_AND_ORGANIZATION ( #73, #239 ) ;
#15 = AXIS2_PLACEMENT_3D ( 'NONE', #81, #139, #157 ) ;
#16 = LOCAL_TIME ( 11, 4, 16.00000000000000000, #145 ) ;
#17 = FACE_OUTER_BOUND ( 'NONE', #20, .T. ) ;
#18 = DIRECTION ( 'NONE',  ( 1.891900229571359390E-30, -1.000000000000000000, 5.418617618040087027E-16 ) ) ;
#19 = EDGE_LOOP ( 'NONE', ( #150 ) ) ;
#20 = EDGE_LOOP ( 'NONE', ( #1 ) ) ;
#21 = EDGE_CURVE ( 'NONE', #64, #64, #52, .T. ) ;
#22 = CARTESIAN_POINT ( 'NONE',  ( 0.0000000000000000000, 0.0000000000000000000, 0.0000000000000000000 ) ) ;
#23 = CARTESIAN_POINT ( 'NONE',  ( 4.347615348805446509E-14, -1.124641912498220250E-15, 12.45206526077548581 ) ) ;
#24 = CARTESIAN_POINT ( 'NONE',  ( 2.793185071074506684E-13, 1.599999999999987876, 80.00000000000000000 ) ) ;
#25 = FACE_OUTER_BOUND ( 'NONE', #225, .T. ) ;
#26 =( LENGTH_UNIT ( ) NAMED_UNIT ( * ) SI_UNIT ( .MILLI., .METRE. ) );
#27 = DIRECTION ( 'NONE',  ( 0.0000000000000000000, 1.000000000000000000, 0.0000000000000000000 ) ) ;
#28 = DIRECTION ( 'NONE',  ( -3.491481338843133355E-15, -5.418617618040087027E-16, -1.000000000000000000 ) ) ;
#29 = AXIS2_PLACEMENT_3D ( 'NONE', #46, #59, #4 ) ;
#30 = EDGE_CURVE ( 'NONE', #40, #40, #198, .T. ) ;
#31 = PERSON_AND_ORGANIZATION ( #73, #239 ) ;
#32 = DATE_AND_TIME ( #217, #212 ) ;
#33 = CIRCLE ( 'NONE', #236, 2.888999999999990909 ) ;
#34 = CC_DESIGN_PERSON_AND_ORGANIZATION_ASSIGNMENT ( #14, #107, ( #140 ) ) ;
#35 = PRODUCT_DEFINITION ( 'UNKNOWN', '', #140, #114 ) ;
#36 = APPROVAL_STATUS ( 'not_yet_approved' ) ;
#37 = EDGE_LOOP ( 'NONE', ( #117 ) ) ;
#38 = CONICAL_SURFACE ( 'NONE', #176, 2.658059892324148521, 0.5235987755982978165 ) ;
#39 = DIRECTION ( 'NONE',  ( -3.491481338843133355E-15, -5.418617618040087027E-16, -1.000000000000000000 ) ) ;
#40 = VERTEX_POINT ( 'NONE', #156 ) ;
#41 = CARTESIAN_POINT ( 'NONE',  ( 2.779219145719134403E-13, -7.189289034394536528E-15, 79.60000000000000853 ) ) ;
#42 = CALENDAR_DATE ( 2021, 26, 11 ) ;
#43 = ADVANCED_FACE ( 'NONE', ( #25 ), #135, .T. ) ;
#44 = DIRECTION ( 'NONE',  ( -3.491481338843133355E-15, 9.031770143711729009E-17, -1.000000000000000000 ) ) ;
#45 = DATE_AND_TIME ( #86, #243 ) ;
#46 = CARTESIAN_POINT ( 'NONE',  ( 4.347615348805445878E-14, 2.888999999999998014, 12.45206526077548403 ) ) ;
#47 = CALENDAR_DATE ( 2021, 26, 11 ) ;
#48 = DIRECTION ( 'NONE',  ( -1.866598769222659324E-30, 1.000000000000000000, -5.441651609913403078E-16 ) ) ;
#49 = CARTESIAN_POINT ( 'NONE',  ( 4.347615348805445878E-14, 6.747298020302297187E-15, 12.45206526077548403 ) ) ;
#50 = PLANE ( 'NONE',  #216 ) ;
#51 = CC_DESIGN_PERSON_AND_ORGANIZATION_ASSIGNMENT ( #120, #158, ( #187 ) ) ;
#52 = CIRCLE ( 'NONE', #61, 2.658059892324148521 ) ;
#53 = FACE_OUTER_BOUND ( 'NONE', #37, .T. ) ;
#54 = APPROVAL ( #36, 'UNSPECIFIED' ) ;
#55 = DIRECTION ( 'NONE',  ( 0.0000000000000000000, 0.0000000000000000000, 1.000000000000000000 ) ) ;
#56 = EDGE_LOOP ( 'NONE', ( #92 ) ) ;
#57 = EDGE_LOOP ( 'NONE', ( #60 ) ) ;
#58 = ADVANCED_FACE ( 'NONE', ( #180, #99 ), #62, .T. ) ;
#59 = DIRECTION ( 'NONE',  ( -3.491481338843133355E-15, 9.031770143711729009E-17, -1.000000000000000000 ) ) ;
#60 = ORIENTED_EDGE ( 'NONE', *, *, #200, .F. ) ;
#61 = AXIS2_PLACEMENT_3D ( 'NONE', #65, #39, #102 ) ;
#62 = CYLINDRICAL_SURFACE ( 'NONE', #122, 1.999999999999993561 ) ;
#63 = PERSON_AND_ORGANIZATION ( #73, #239 ) ;
#64 = VERTEX_POINT ( 'NONE', #230 ) ;
#65 = CARTESIAN_POINT ( 'NONE',  ( 5.028784120502479089E-30, 7.804440461853838044E-31, 1.440301016235336820E-15 ) ) ;
#66 = DIRECTION ( 'NONE',  ( -1.891900229571359390E-30, 1.000000000000000000, -5.418617618040087027E-16 ) ) ;
#67 = DATE_AND_TIME ( #70, #16 ) ;
#68 = PRODUCT_RELATED_PRODUCT_CATEGORY ( 'detail', '', ( #187 ) ) ;
#69 = FACE_OUTER_BOUND ( 'NONE', #134, .T. ) ;
#70 = CALENDAR_DATE ( 2021, 26, 11 ) ;
#71 =( GEOMETRIC_REPRESENTATION_CONTEXT ( 3 ) GLOBAL_UNCERTAINTY_ASSIGNED_CONTEXT ( ( #2 ) ) GLOBAL_UNIT_ASSIGNED_CONTEXT ( ( #26, #170, #192 ) ) REPRESENTATION_CONTEXT ( 'NONE', 'WORKASPACE' ) );
#72 = AXIS2_PLACEMENT_3D ( 'NONE', #87, #154, #179 ) ;
#73 = PERSON ( 'UNSPECIFIED', 'UNSPECIFIED', 'UNSPECIFIED', ('UNSPECIFIED'), ('UNSPECIFIED'), ('UNSPECIFIED') ) ;
#74 = ADVANCED_FACE ( 'NONE', ( #119, #10 ), #84, .T. ) ;
#75 = EDGE_LOOP ( 'NONE', ( #191 ) ) ;
#76 = AXIS2_PLACEMENT_3D ( 'NONE', #195, #232, #3 ) ;
#77 = CC_DESIGN_APPROVAL ( #233, ( #162 ) ) ;
#78 = FACE_BOUND ( 'NONE', #220, .T. ) ;
#79 = DIRECTION ( 'NONE',  ( -3.491481338843133355E-15, 9.031770143711729009E-17, -1.000000000000000000 ) ) ;
#80 = APPLICATION_PROTOCOL_DEFINITION ( 'international standard', 'config_control_design', 1994, #85 ) ;
#81 = CARTESIAN_POINT ( 'NONE',  ( 2.793185071074506684E-13, -7.225416114969383207E-15, 80.00000000000000000 ) ) ;
#82 = ORIENTED_EDGE ( 'NONE', *, *, #169, .F. ) ;
#83 = PERSON_AND_ORGANIZATION ( #73, #239 ) ;
#84 = CYLINDRICAL_SURFACE ( 'NONE', #186, 2.888999999999994905 ) ;
#85 = APPLICATION_CONTEXT ( 'configuration controlled 3d designs of mechanical parts and assemblies' ) ;
#86 = CALENDAR_DATE ( 2021, 26, 11 ) ;
#87 = CARTESIAN_POINT ( 'NONE',  ( 2.793185071074506684E-13, -7.225416114969383207E-15, 80.00000000000000000 ) ) ;
#88 = DATE_AND_TIME ( #47, #240 ) ;
#89 = LOCAL_TIME ( 11, 4, 16.00000000000000000, #128 ) ;
#90 = APPROVAL_DATE_TIME ( #88, #54 ) ;
#91 = ORIENTED_EDGE ( 'NONE', *, *, #164, .T. ) ;
#92 = ORIENTED_EDGE ( 'NONE', *, *, #30, .F. ) ;
#93 = ADVANCED_FACE ( 'NONE', ( #133, #95 ), #182, .T. ) ;
#94 = AXIS2_PLACEMENT_3D ( 'NONE', #41, #178, #161 ) ;
#95 = FACE_OUTER_BOUND ( 'NONE', #130, .T. ) ;
#96 = EDGE_LOOP ( 'NONE', ( #101 ) ) ;
#97 = DIRECTION ( 'NONE',  ( -3.491481338843133355E-15, 9.031770143711729009E-17, -1.000000000000000000 ) ) ;
#98 = CC_DESIGN_PERSON_AND_ORGANIZATION_ASSIGNMENT ( #83, #181, ( #35 ) ) ;
#99 = FACE_OUTER_BOUND ( 'NONE', #19, .T. ) ;
#100 = DIRECTION ( 'NONE',  ( -3.491481338843133355E-15, -5.418617618040087027E-16, -1.000000000000000000 ) ) ;
#101 = ORIENTED_EDGE ( 'NONE', *, *, #21, .T. ) ;
#102 = DIRECTION ( 'NONE',  ( -1.891900229571359390E-30, 1.000000000000000000, -5.418617618040087027E-16 ) ) ;
#103 = DIRECTION ( 'NONE',  ( 1.000000000000000000, 0.0000000000000000000, 0.0000000000000000000 ) ) ;
#104 = PERSON_AND_ORGANIZATION_ROLE ( 'classification_officer' ) ;
#105 = CC_DESIGN_PERSON_AND_ORGANIZATION_ASSIGNMENT ( #163, #184, ( #140 ) ) ;
#106 = DATE_TIME_ROLE ( 'classification_date' ) ;
#107 = PERSON_AND_ORGANIZATION_ROLE ( 'design_supplier' ) ;
#108 = DIRECTION ( 'NONE',  ( 3.491481338843133355E-15, 5.418617618040087027E-16, 1.000000000000000000 ) ) ;
#109 = AXIS2_PLACEMENT_3D ( 'NONE', #137, #79, #27 ) ;
#110 = APPROVAL_ROLE ( '' ) ;
#111 = ADVANCED_FACE ( 'NONE', ( #224 ), #115, .T. ) ;
#112 = EDGE_CURVE ( 'NONE', #194, #194, #33, .T. ) ;
#113 = AXIS2_PLACEMENT_3D ( 'NONE', #227, #44, #121 ) ;
#114 = DESIGN_CONTEXT ( 'detailed design', #85, 'design' ) ;
#115 = PLANE ( 'NONE',  #143 ) ;
#116 = DIRECTION ( 'NONE',  ( -2.133255736254473505E-30, 1.000000000000000000, -6.004581086801012481E-16 ) ) ;
#117 = ORIENTED_EDGE ( 'NONE', *, *, #159, .F. ) ;
#118 = DATE_AND_TIME ( #42, #89 ) ;
#119 = FACE_OUTER_BOUND ( 'NONE', #127, .T. ) ;
#120 = PERSON_AND_ORGANIZATION ( #73, #239 ) ;
#121 = DIRECTION ( 'NONE',  ( 0.0000000000000000000, 1.000000000000000000, 0.0000000000000000000 ) ) ;
#122 = AXIS2_PLACEMENT_3D ( 'NONE', #22, #209, #211 ) ;
#123 = SECURITY_CLASSIFICATION_LEVEL ( 'unclassified' ) ;
#124 = DIRECTION ( 'NONE',  ( 1.891900229571359390E-30, -1.000000000000000000, 5.418617618040087027E-16 ) ) ;
#125 = AXIS2_PLACEMENT_3D ( 'NONE', #197, #28, #48 ) ;
#126 = FACE_BOUND ( 'NONE', #75, .T. ) ;
#127 = EDGE_LOOP ( 'NONE', ( #174 ) ) ;
#128 = COORDINATED_UNIVERSAL_TIME_OFFSET ( 1, 0, .AHEAD. ) ;
#129 = CC_DESIGN_DATE_AND_TIME_ASSIGNMENT ( #32, #106, ( #162 ) ) ;
#130 = EDGE_LOOP ( 'NONE', ( #82 ) ) ;
#131 = ORIENTED_EDGE ( 'NONE', *, *, #159, .T. ) ;
#132 = APPROVAL_PERSON_ORGANIZATION ( #63, #188, #7 ) ;
#133 = FACE_BOUND ( 'NONE', #151, .T. ) ;
#134 = EDGE_LOOP ( 'NONE', ( #138 ) ) ;
#135 = PLANE ( 'NONE',  #29 ) ;
#136 = CARTESIAN_POINT ( 'NONE',  ( 4.885231259955589808E-14, 1.999999999999990452, 13.99185842870424956 ) ) ;
#137 = CARTESIAN_POINT ( 'NONE',  ( 4.347615348805446509E-14, -1.124641912498220250E-15, 12.45206526077548581 ) ) ;
#138 = ORIENTED_EDGE ( 'NONE', *, *, #112, .F. ) ;
#139 = DIRECTION ( 'NONE',  ( -3.491481338843133355E-15, 9.031770143711729009E-17, -1.000000000000000000 ) ) ;
#140 = PRODUCT_DEFINITION_FORMATION_WITH_SPECIFIED_SOURCE ( 'ANY', '', #187, .NOT_KNOWN. ) ;
#141 = APPROVAL_DATE_TIME ( #118, #188 ) ;
#142 = APPROVAL_DATE_TIME ( #67, #233 ) ;
#143 = AXIS2_PLACEMENT_3D ( 'NONE', #6, #214, #8 ) ;
#144 = CC_DESIGN_APPROVAL ( #54, ( #140 ) ) ;
#145 = COORDINATED_UNIVERSAL_TIME_OFFSET ( 1, 0, .AHEAD. ) ;
#146 = DIRECTION ( 'NONE',  ( 0.0000000000000000000, 1.000000000000000000, 0.0000000000000000000 ) ) ;
#147 = CIRCLE ( 'NONE', #76, 1.999999999999995337 ) ;
#148 = ORIENTED_EDGE ( 'NONE', *, *, #169, .T. ) ;
#149 = CC_DESIGN_DATE_AND_TIME_ASSIGNMENT ( #45, #11, ( #35 ) ) ;
#150 = ORIENTED_EDGE ( 'NONE', *, *, #164, .F. ) ;
#151 = EDGE_LOOP ( 'NONE', ( #131 ) ) ;
#152 = CC_DESIGN_SECURITY_CLASSIFICATION ( #162, ( #140 ) ) ;
#153 = CARTESIAN_POINT ( 'NONE',  ( 0.0000000000000000000, 0.0000000000000000000, 0.0000000000000000000 ) ) ;
#154 = DIRECTION ( 'NONE',  ( 3.491481338843133355E-15, -9.031770143711729009E-17, 1.000000000000000000 ) ) ;
#155 = CIRCLE ( 'NONE', #125, 2.888999999999998458 ) ;
#156 = CARTESIAN_POINT ( 'NONE',  ( 4.347615348805446509E-14, 2.888999999999998014, 12.45206526077548581 ) ) ;
#157 = DIRECTION ( 'NONE',  ( 0.0000000000000000000, 1.000000000000000000, 0.0000000000000000000 ) ) ;
#158 = PERSON_AND_ORGANIZATION_ROLE ( 'design_owner' ) ;
#159 = EDGE_CURVE ( 'NONE', #160, #160, #166, .T. ) ;
#160 = VERTEX_POINT ( 'NONE', #24 ) ;
#161 = DIRECTION ( 'NONE',  ( 0.0000000000000000000, 1.000000000000000000, 0.0000000000000000000 ) ) ;
#162 = SECURITY_CLASSIFICATION ( '', '', #123 ) ;
#163 = PERSON_AND_ORGANIZATION ( #73, #239 ) ;
#164 = EDGE_CURVE ( 'NONE', #226, #226, #171, .T. ) ;
#165 = COORDINATED_UNIVERSAL_TIME_OFFSET ( 1, 0, .AHEAD. ) ;
#166 = CIRCLE ( 'NONE', #15, 1.599999999999994982 ) ;
#167 = DIRECTION ( 'NONE',  ( 3.491481338843133355E-15, 5.418617618040087027E-16, 1.000000000000000000 ) ) ;
#168 = CC_DESIGN_APPROVAL ( #188, ( #35 ) ) ;
#169 = EDGE_CURVE ( 'NONE', #213, #213, #147, .T. ) ;
#170 =( NAMED_UNIT ( * ) PLANE_ANGLE_UNIT ( ) SI_UNIT ( $, .RADIAN. ) );
#171 = CIRCLE ( 'NONE', #113, 1.999999999999991784 ) ;
#172 = ORIENTED_EDGE ( 'NONE', *, *, #30, .T. ) ;
#173 = FACE_OUTER_BOUND ( 'NONE', #56, .T. ) ;
#174 = ORIENTED_EDGE ( 'NONE', *, *, #112, .T. ) ;
#175 = CARTESIAN_POINT ( 'NONE',  ( 0.0000000000000000000, 0.0000000000000000000, 0.0000000000000000000 ) ) ;
#176 = AXIS2_PLACEMENT_3D ( 'NONE', #202, #108, #18 ) ;
#177 = VERTEX_POINT ( 'NONE', #223 ) ;
#178 = DIRECTION ( 'NONE',  ( -3.491481338843133355E-15, 9.031770143711729009E-17, -1.000000000000000000 ) ) ;
#179 = DIRECTION ( 'NONE',  ( -3.153425691349006731E-31, -1.000000000000000000, -9.031770143711729009E-17 ) ) ;
#180 = FACE_OUTER_BOUND ( 'NONE', #206, .T. ) ;
#181 = PERSON_AND_ORGANIZATION_ROLE ( 'creator' ) ;
#182 = CONICAL_SURFACE ( 'NONE', #94, 1.999999999999995337, 0.7853981633974516097 ) ;
#183 = APPROVAL_PERSON_ORGANIZATION ( #204, #54, #110 ) ;
#184 = PERSON_AND_ORGANIZATION_ROLE ( 'creator' ) ;
#185 = APPROVAL_ROLE ( '' ) ;
#186 = AXIS2_PLACEMENT_3D ( 'NONE', #153, #100, #66 ) ;
#187 = PRODUCT ( '321481', '321481', '', ( #5 ) ) ;
#188 = APPROVAL ( #242, 'UNSPECIFIED' ) ;
#189 = AXIS2_PLACEMENT_3D ( 'NONE', #23, #97, #146 ) ;
#190 = DIRECTION ( 'NONE',  ( -3.491481338843133355E-15, -5.418617618040087027E-16, -1.000000000000000000 ) ) ;
#191 = ORIENTED_EDGE ( 'NONE', *, *, #21, .F. ) ;
#192 =( NAMED_UNIT ( * ) SI_UNIT ( $, .STERADIAN. ) SOLID_ANGLE_UNIT ( ) );
#193 = APPLICATION_PROTOCOL_DEFINITION ( 'international standard', 'config_control_design', 1994, #237 ) ;
#194 = VERTEX_POINT ( 'NONE', #196 ) ;
#195 = CARTESIAN_POINT ( 'NONE',  ( 2.779219145719134403E-13, -7.189289034394536528E-15, 79.60000000000000853 ) ) ;
#196 = CARTESIAN_POINT ( 'NONE',  ( 4.347615348805446509E-14, 2.888999999999998014, 12.45206526077548581 ) ) ;
#197 = CARTESIAN_POINT ( 'NONE',  ( 1.396592535537258667E-15, 2.167447047216043193E-16, 0.4000000000000015210 ) ) ;
#198 = CIRCLE ( 'NONE', #109, 2.888999999999999346 ) ;
#199 = ADVANCED_FACE ( 'NONE', ( #78, #173 ), #231, .T. ) ;
#200 = EDGE_CURVE ( 'NONE', #177, #177, #155, .T. ) ;
#201 = PERSON_AND_ORGANIZATION ( #73, #239 ) ;
#202 = CARTESIAN_POINT ( 'NONE',  ( 5.028784120502479089E-30, 7.804440461853838044E-31, 1.440301016235336820E-15 ) ) ;
#203 = CLOSED_SHELL ( 'NONE', ( #205, #74, #235, #111 ) ) ;
#204 = PERSON_AND_ORGANIZATION ( #73, #239 ) ;
#205 = ADVANCED_FACE ( 'NONE', ( #69 ), #50, .T. ) ;
#206 = EDGE_LOOP ( 'NONE', ( #148 ) ) ;
#207 = MANIFOLD_SOLID_BREP ( 'Corps-Déplacer/Copier1[1]', #12 ) ;
#208 = CARTESIAN_POINT ( 'NONE',  ( 2.779219145719134403E-13, 1.999999999999988010, 79.60000000000000853 ) ) ;
#209 = DIRECTION ( 'NONE',  ( -3.491481338843133355E-15, 9.031770143711729009E-17, -1.000000000000000000 ) ) ;
#210 = ADVANCED_BREP_SHAPE_REPRESENTATION ( '321481', ( #207, #222, #218 ), #71 ) ;
#211 = DIRECTION ( 'NONE',  ( 3.153425691349006731E-31, 1.000000000000000000, 9.031770143711729009E-17 ) ) ;
#212 = LOCAL_TIME ( 11, 4, 16.00000000000000000, #165 ) ;
#213 = VERTEX_POINT ( 'NONE', #208 ) ;
#214 = DIRECTION ( 'NONE',  ( -3.491481338843133355E-15, -5.418617618040087027E-16, -1.000000000000000000 ) ) ;
#215 = SHAPE_DEFINITION_REPRESENTATION ( #221, #210 ) ;
#216 = AXIS2_PLACEMENT_3D ( 'NONE', #49, #167, #124 ) ;
#217 = CALENDAR_DATE ( 2021, 26, 11 ) ;
#218 = AXIS2_PLACEMENT_3D ( 'NONE', #175, #55, #103 ) ;
#219 = APPROVAL_PERSON_ORGANIZATION ( #201, #233, #185 ) ;
#220 = EDGE_LOOP ( 'NONE', ( #91 ) ) ;
#221 = PRODUCT_DEFINITION_SHAPE ( 'NONE', 'NONE',  #35 ) ;
#222 = MANIFOLD_SOLID_BREP ( 'Corps-Déplacer/Copier1[2]', #203 ) ;
#223 = CARTESIAN_POINT ( 'NONE',  ( 1.396592535537253342E-15, 2.888999999999998458, 0.3999999999999999667 ) ) ;
#224 = FACE_OUTER_BOUND ( 'NONE', #96, .T. ) ;
#225 = EDGE_LOOP ( 'NONE', ( #172 ) ) ;
#226 = VERTEX_POINT ( 'NONE', #136 ) ;
#227 = CARTESIAN_POINT ( 'NONE',  ( 4.885231259955589808E-14, -1.263712492114123485E-15, 13.99185842870424956 ) ) ;
#228 = PLANE ( 'NONE',  #72 ) ;
#229 = CARTESIAN_POINT ( 'NONE',  ( 4.347615348805447141E-14, 6.747298020302298765E-15, 12.45206526077548759 ) ) ;
#230 = CARTESIAN_POINT ( 'NONE',  ( 0.0000000000000000000, 2.658059892324148521, 0.0000000000000000000 ) ) ;
#231 = CONICAL_SURFACE ( 'NONE', #189, 2.888999999999999346, 0.5235987755982934866 ) ;
#232 = DIRECTION ( 'NONE',  ( -3.491481338843133355E-15, 9.031770143711729009E-17, -1.000000000000000000 ) ) ;
#233 = APPROVAL ( #234, 'UNSPECIFIED' ) ;
#234 = APPROVAL_STATUS ( 'not_yet_approved' ) ;
#235 = ADVANCED_FACE ( 'NONE', ( #17, #126 ), #38, .T. ) ;
#236 = AXIS2_PLACEMENT_3D ( 'NONE', #229, #190, #116 ) ;
#237 = APPLICATION_CONTEXT ( 'configuration controlled 3d designs of mechanical parts and assemblies' ) ;
#238 = COORDINATED_UNIVERSAL_TIME_OFFSET ( 1, 0, .AHEAD. ) ;
#239 = ORGANIZATION ( 'UNSPECIFIED', 'UNSPECIFIED', '' ) ;
#240 = LOCAL_TIME ( 11, 4, 16.00000000000000000, #238 ) ;
#241 = ADVANCED_FACE ( 'NONE', ( #53 ), #228, .T. ) ;
#242 = APPROVAL_STATUS ( 'not_yet_approved' ) ;
#243 = LOCAL_TIME ( 11, 4, 16.00000000000000000, #9 ) ;
ENDSEC;
END-ISO-10303-21;
