ISO-10303-21;
HEADER;
FILE_DESCRIPTION (( 'STEP AP203' ),
    '1' );
FILE_NAME ('321480.step',
    '2021-11-26T10:04:15',
    ( '' ),
    ( '' ),
    'SwSTEP 2.0',
    'SolidWorks 2019',
    '' );
FILE_SCHEMA (( 'CONFIG_CONTROL_DESIGN' ));
ENDSEC;

DATA;
#1 = DIRECTION ( 'NONE',  ( -1.889991007360904650E-30, 1.000000000000000000, -5.413149388296986295E-16 ) ) ;
#2 = AXIS2_PLACEMENT_3D ( 'NONE', #223, #204, #117 ) ;
#3 = CIRCLE ( 'NONE', #62, 1.999999999999991784 ) ;
#4 = ADVANCED_FACE ( 'NONE', ( #72 ), #129, .T. ) ;
#5 = ORIENTED_EDGE ( 'NONE', *, *, #24, .F. ) ;
#6 = ORIENTED_EDGE ( 'NONE', *, *, #220, .T. ) ;
#7 = APPROVAL_ROLE ( '' ) ;
#8 = ORIENTED_EDGE ( 'NONE', *, *, #220, .F. ) ;
#9 =( NAMED_UNIT ( * ) PLANE_ANGLE_UNIT ( ) SI_UNIT ( $, .RADIAN. ) );
#10 = APPROVAL ( #241, 'UNSPECIFIED' ) ;
#11 = EDGE_LOOP ( 'NONE', ( #150 ) ) ;
#12 =( LENGTH_UNIT ( ) NAMED_UNIT ( * ) SI_UNIT ( .MILLI., .METRE. ) );
#13 = DIRECTION ( 'NONE',  ( 3.491481338843133355E-15, -9.031770143711729009E-17, 1.000000000000000000 ) ) ;
#14 = DIRECTION ( 'NONE',  ( 3.153425691349006731E-31, 1.000000000000000000, 9.031770143711729009E-17 ) ) ;
#15 = DATE_AND_TIME ( #160, #149 ) ;
#16 = FACE_BOUND ( 'NONE', #30, .T. ) ;
#17 = DATE_AND_TIME ( #41, #228 ) ;
#18 = CLOSED_SHELL ( 'NONE', ( #83, #42, #168, #46, #4 ) ) ;
#19 = DIRECTION ( 'NONE',  ( 0.0000000000000000000, 1.000000000000000000, 0.0000000000000000000 ) ) ;
#20 = APPROVAL_PERSON_ORGANIZATION ( #195, #77, #7 ) ;
#21 = PERSON_AND_ORGANIZATION_ROLE ( 'design_supplier' ) ;
#22 = CARTESIAN_POINT ( 'NONE',  ( 4.350639060341724014E-14, -1.125424086736780138E-15, 12.46072551481333157 ) ) ;
#23 = DATE_AND_TIME ( #147, #188 ) ;
#24 = EDGE_CURVE ( 'NONE', #96, #96, #191, .T. ) ;
#25 = AXIS2_PLACEMENT_3D ( 'NONE', #119, #127, #14 ) ;
#26 = DIRECTION ( 'NONE',  ( 1.889991007360905001E-30, -1.000000000000000000, 5.413149388296986295E-16 ) ) ;
#27 = ADVANCED_BREP_SHAPE_REPRESENTATION ( '321480', ( #144, #229, #55 ), #211 ) ;
#28 = ORIENTED_EDGE ( 'NONE', *, *, #128, .F. ) ;
#29 = ORIENTED_EDGE ( 'NONE', *, *, #24, .T. ) ;
#30 = EDGE_LOOP ( 'NONE', ( #6 ) ) ;
#31 = DIRECTION ( 'NONE',  ( -3.491481338843133355E-15, 9.031770143711729009E-17, -1.000000000000000000 ) ) ;
#32 = CC_DESIGN_PERSON_AND_ORGANIZATION_ASSIGNMENT ( #163, #21, ( #47 ) ) ;
#33 = CARTESIAN_POINT ( 'NONE',  ( -2.507129669241265823E-30, 2.653059892324148628, -7.180704766624866544E-16 ) ) ;
#34 = EDGE_LOOP ( 'NONE', ( #235 ) ) ;
#35 = DIRECTION ( 'NONE',  ( 1.000000000000000000, 0.0000000000000000000, 0.0000000000000000000 ) ) ;
#36 = PERSON_AND_ORGANIZATION ( #180, #171 ) ;
#37 = APPROVAL ( #167, 'UNSPECIFIED' ) ;
#38 = DIRECTION ( 'NONE',  ( -3.491481338843133355E-15, 9.031770143711729009E-17, -1.000000000000000000 ) ) ;
#39 = FACE_OUTER_BOUND ( 'NONE', #231, .T. ) ;
#40 = CIRCLE ( 'NONE', #173, 2.653059892324148628 ) ;
#41 = CALENDAR_DATE ( 2021, 26, 11 ) ;
#42 = ADVANCED_FACE ( 'NONE', ( #221, #53 ), #222, .T. ) ;
#43 = AXIS2_PLACEMENT_3D ( 'NONE', #91, #45, #26 ) ;
#44 = CONICAL_SURFACE ( 'NONE', #43, 2.653059892324148628, 0.5235987755982978165 ) ;
#45 = DIRECTION ( 'NONE',  ( 3.491481338843133355E-15, 5.413149388296985309E-16, 1.000000000000000000 ) ) ;
#46 = ADVANCED_FACE ( 'NONE', ( #16, #113 ), #68, .T. ) ;
#47 = PRODUCT_DEFINITION_FORMATION_WITH_SPECIFIED_SOURCE ( 'ANY', '', #184, .NOT_KNOWN. ) ;
#48 = DIRECTION ( 'NONE',  ( 0.0000000000000000000, 0.0000000000000000000, 1.000000000000000000 ) ) ;
#49 = EDGE_LOOP ( 'NONE', ( #69 ) ) ;
#50 = VERTEX_POINT ( 'NONE', #136 ) ;
#51 = SECURITY_CLASSIFICATION ( '', '', #74 ) ;
#52 = EDGE_CURVE ( 'NONE', #179, #179, #157, .T. ) ;
#53 = FACE_OUTER_BOUND ( 'NONE', #34, .T. ) ;
#54 = AXIS2_PLACEMENT_3D ( 'NONE', #225, #101, #73 ) ;
#55 = AXIS2_PLACEMENT_3D ( 'NONE', #202, #48, #35 ) ;
#56 = APPROVAL_ROLE ( '' ) ;
#57 = COORDINATED_UNIVERSAL_TIME_OFFSET ( 1, 0, .AHEAD. ) ;
#58 = PRODUCT_DEFINITION ( 'UNKNOWN', '', #47, #190 ) ;
#59 = CARTESIAN_POINT ( 'NONE',  ( 2.779219145719134403E-13, -7.189289034394536528E-15, 79.60000000000000853 ) ) ;
#60 = AXIS2_PLACEMENT_3D ( 'NONE', #22, #162, #185 ) ;
#61 = DIRECTION ( 'NONE',  ( -2.136954168529533407E-30, 1.000000000000000000, -6.014991248185896727E-16 ) ) ;
#62 = AXIS2_PLACEMENT_3D ( 'NONE', #71, #198, #216 ) ;
#63 = FACE_OUTER_BOUND ( 'NONE', #158, .T. ) ;
#64 = DIRECTION ( 'NONE',  ( -3.491481338843133355E-15, -5.413149388296985309E-16, -1.000000000000000000 ) ) ;
#65 = VERTEX_POINT ( 'NONE', #123 ) ;
#66 = EDGE_LOOP ( 'NONE', ( #197 ) ) ;
#67 = APPLICATION_PROTOCOL_DEFINITION ( 'international standard', 'config_control_design', 1994, #152 ) ;
#68 = CONICAL_SURFACE ( 'NONE', #60, 2.883999999999999453, 0.5235987755982928205 ) ;
#69 = ORIENTED_EDGE ( 'NONE', *, *, #230, .F. ) ;
#70 = CIRCLE ( 'NONE', #193, 2.883999999999998565 ) ;
#71 = CARTESIAN_POINT ( 'NONE',  ( 4.885231259955591070E-14, -1.263712492114123682E-15, 13.99185842870425311 ) ) ;
#72 = FACE_OUTER_BOUND ( 'NONE', #66, .T. ) ;
#73 = DIRECTION ( 'NONE',  ( 1.889991007360904650E-30, -1.000000000000000000, 5.413149388296985309E-16 ) ) ;
#74 = SECURITY_CLASSIFICATION_LEVEL ( 'unclassified' ) ;
#75 = AXIS2_PLACEMENT_3D ( 'NONE', #110, #126, #61 ) ;
#76 = CIRCLE ( 'NONE', #93, 2.883999999999999453 ) ;
#77 = APPROVAL ( #154, 'UNSPECIFIED' ) ;
#78 = DIRECTION ( 'NONE',  ( -3.153425691349006731E-31, -1.000000000000000000, -9.031770143711729009E-17 ) ) ;
#79 = PERSON_AND_ORGANIZATION ( #180, #171 ) ;
#80 = CYLINDRICAL_SURFACE ( 'NONE', #2, 2.883999999999995012 ) ;
#81 = DATE_TIME_ROLE ( 'creation_date' ) ;
#82 = AXIS2_PLACEMENT_3D ( 'NONE', #59, #242, #206 ) ;
#83 = ADVANCED_FACE ( 'NONE', ( #181 ), #104, .T. ) ;
#84 = LOCAL_TIME ( 11, 4, 15.00000000000000000, #120 ) ;
#85 = FACE_OUTER_BOUND ( 'NONE', #176, .T. ) ;
#86 = APPROVAL_PERSON_ORGANIZATION ( #145, #10, #56 ) ;
#87 = CARTESIAN_POINT ( 'NONE',  ( 0.0000000000000000000, 0.0000000000000000000, 0.0000000000000000000 ) ) ;
#88 = ADVANCED_FACE ( 'NONE', ( #146 ), #99, .T. ) ;
#89 = VERTEX_POINT ( 'NONE', #214 ) ;
#90 = AXIS2_PLACEMENT_3D ( 'NONE', #201, #166, #19 ) ;
#91 = CARTESIAN_POINT ( 'NONE',  ( 5.014259338482531646E-30, 7.774045522999327609E-31, 1.436140953324973309E-15 ) ) ;
#92 = ADVANCED_FACE ( 'NONE', ( #39, #189 ), #80, .T. ) ;
#93 = AXIS2_PLACEMENT_3D ( 'NONE', #112, #31, #125 ) ;
#94 = CARTESIAN_POINT ( 'NONE',  ( 2.779219145719134403E-13, 1.999999999999988010, 79.60000000000000853 ) ) ;
#95 = EDGE_LOOP ( 'NONE', ( #213 ) ) ;
#96 = VERTEX_POINT ( 'NONE', #234 ) ;
#97 = ORIENTED_EDGE ( 'NONE', *, *, #159, .F. ) ;
#98 = CALENDAR_DATE ( 2021, 26, 11 ) ;
#99 = PLANE ( 'NONE',  #54 ) ;
#100 = COORDINATED_UNIVERSAL_TIME_OFFSET ( 1, 0, .AHEAD. ) ;
#101 = DIRECTION ( 'NONE',  ( 3.491481338843133355E-15, 5.413149388296985309E-16, 1.000000000000000000 ) ) ;
#102 = DATE_AND_TIME ( #98, #233 ) ;
#103 = ADVANCED_FACE ( 'NONE', ( #164, #161 ), #44, .T. ) ;
#104 = PLANE ( 'NONE',  #170 ) ;
#105 = COORDINATED_UNIVERSAL_TIME_OFFSET ( 1, 0, .AHEAD. ) ;
#106 = PERSON_AND_ORGANIZATION ( #180, #171 ) ;
#107 = CC_DESIGN_PERSON_AND_ORGANIZATION_ASSIGNMENT ( #106, #169, ( #47 ) ) ;
#108 = AXIS2_PLACEMENT_3D ( 'NONE', #87, #210, #182 ) ;
#109 = DIRECTION ( 'NONE',  ( -1.869834897463336783E-30, 1.000000000000000000, -5.451085818668454025E-16 ) ) ;
#110 = CARTESIAN_POINT ( 'NONE',  ( 4.350639060341724645E-14, 6.745176869824843155E-15, 12.46072551481333335 ) ) ;
#111 = ORIENTED_EDGE ( 'NONE', *, *, #128, .T. ) ;
#112 = CARTESIAN_POINT ( 'NONE',  ( 4.350639060341724014E-14, -1.125424086736780138E-15, 12.46072551481333157 ) ) ;
#113 = FACE_OUTER_BOUND ( 'NONE', #49, .T. ) ;
#114 = APPLICATION_PROTOCOL_DEFINITION ( 'international standard', 'config_control_design', 1994, #212 ) ;
#115 = UNCERTAINTY_MEASURE_WITH_UNIT (LENGTH_MEASURE( 1.000000000000000082E-05 ), #12, 'distance_accuracy_value', 'NONE');
#116 = CC_DESIGN_DATE_AND_TIME_ASSIGNMENT ( #17, #81, ( #58 ) ) ;
#117 = DIRECTION ( 'NONE',  ( -1.889991007360904650E-30, 1.000000000000000000, -5.413149388296985309E-16 ) ) ;
#118 = APPROVAL_DATE_TIME ( #102, #77 ) ;
#119 = CARTESIAN_POINT ( 'NONE',  ( 4.350639060341724645E-14, 2.883999999999998121, 12.46072551481333335 ) ) ;
#120 = COORDINATED_UNIVERSAL_TIME_OFFSET ( 1, 0, .AHEAD. ) ;
#121 = EDGE_CURVE ( 'NONE', #138, #138, #177, .T. ) ;
#122 = CC_DESIGN_PERSON_AND_ORGANIZATION_ASSIGNMENT ( #79, #186, ( #58 ) ) ;
#123 = CARTESIAN_POINT ( 'NONE',  ( 1.396592535537253342E-15, 2.883999999999998565, 0.3999999999999999667 ) ) ;
#124 = FACE_OUTER_BOUND ( 'NONE', #139, .T. ) ;
#125 = DIRECTION ( 'NONE',  ( 0.0000000000000000000, 1.000000000000000000, 0.0000000000000000000 ) ) ;
#126 = DIRECTION ( 'NONE',  ( -3.491481338843133355E-15, -5.413149388296985309E-16, -1.000000000000000000 ) ) ;
#127 = DIRECTION ( 'NONE',  ( -3.491481338843133355E-15, 9.031770143711729009E-17, -1.000000000000000000 ) ) ;
#128 = EDGE_CURVE ( 'NONE', #50, #50, #40, .T. ) ;
#129 = PLANE ( 'NONE',  #25 ) ;
#130 = APPROVAL_DATE_TIME ( #15, #10 ) ;
#131 = DATE_TIME_ROLE ( 'classification_date' ) ;
#132 = AXIS2_PLACEMENT_3D ( 'NONE', #203, #38, #208 ) ;
#133 = CC_DESIGN_PERSON_AND_ORGANIZATION_ASSIGNMENT ( #36, #232, ( #184 ) ) ;
#134 = CYLINDRICAL_SURFACE ( 'NONE', #108, 1.999999999999993561 ) ;
#135 = CARTESIAN_POINT ( 'NONE',  ( 1.396592535537258667E-15, 2.165259755318802456E-16, 0.4000000000000015210 ) ) ;
#136 = CARTESIAN_POINT ( 'NONE',  ( 6.842277657836020854E-46, 2.653059892324148628, 0.0000000000000000000 ) ) ;
#137 = VERTEX_POINT ( 'NONE', #151 ) ;
#138 = VERTEX_POINT ( 'NONE', #143 ) ;
#139 = EDGE_LOOP ( 'NONE', ( #111 ) ) ;
#140 = DIRECTION ( 'NONE',  ( -1.889991007360904650E-30, 1.000000000000000000, -5.413149388296985309E-16 ) ) ;
#141 = CC_DESIGN_APPROVAL ( #37, ( #51 ) ) ;
#142 = EDGE_LOOP ( 'NONE', ( #97 ) ) ;
#143 = CARTESIAN_POINT ( 'NONE',  ( 4.350639060341724014E-14, 2.883999999999998121, 12.46072551481333157 ) ) ;
#144 = MANIFOLD_SOLID_BREP ( 'Corps-Déplacer/Copier1[1]', #18 ) ;
#145 = PERSON_AND_ORGANIZATION ( #180, #171 ) ;
#146 = FACE_OUTER_BOUND ( 'NONE', #11, .T. ) ;
#147 = CALENDAR_DATE ( 2021, 26, 11 ) ;
#148 = CLOSED_SHELL ( 'NONE', ( #88, #92, #103, #175 ) ) ;
#149 = LOCAL_TIME ( 11, 4, 15.00000000000000000, #100 ) ;
#150 = ORIENTED_EDGE ( 'NONE', *, *, #121, .F. ) ;
#151 = CARTESIAN_POINT ( 'NONE',  ( 4.885231259955591070E-14, 1.999999999999990452, 13.99185842870425311 ) ) ;
#152 = APPLICATION_CONTEXT ( 'configuration controlled 3d designs of mechanical parts and assemblies' ) ;
#153 = CC_DESIGN_SECURITY_CLASSIFICATION ( #51, ( #47 ) ) ;
#154 = APPROVAL_STATUS ( 'not_yet_approved' ) ;
#155 = EDGE_LOOP ( 'NONE', ( #28 ) ) ;
#156 = DIRECTION ( 'NONE',  ( -3.491481338843133355E-15, -5.413149388296985309E-16, -1.000000000000000000 ) ) ;
#157 = CIRCLE ( 'NONE', #82, 1.999999999999995337 ) ;
#158 = EDGE_LOOP ( 'NONE', ( #215 ) ) ;
#159 = EDGE_CURVE ( 'NONE', #65, #65, #70, .T. ) ;
#160 = CALENDAR_DATE ( 2021, 26, 11 ) ;
#161 = FACE_BOUND ( 'NONE', #155, .T. ) ;
#162 = DIRECTION ( 'NONE',  ( -3.491481338843133355E-15, 9.031770143711729009E-17, -1.000000000000000000 ) ) ;
#163 = PERSON_AND_ORGANIZATION ( #180, #171 ) ;
#164 = FACE_OUTER_BOUND ( 'NONE', #95, .T. ) ;
#165 = PRODUCT_DEFINITION_SHAPE ( 'NONE', 'NONE',  #58 ) ;
#166 = DIRECTION ( 'NONE',  ( -3.491481338843133355E-15, 9.031770143711729009E-17, -1.000000000000000000 ) ) ;
#167 = APPROVAL_STATUS ( 'not_yet_approved' ) ;
#168 = ADVANCED_FACE ( 'NONE', ( #63, #85 ), #134, .T. ) ;
#169 = PERSON_AND_ORGANIZATION_ROLE ( 'creator' ) ;
#170 = AXIS2_PLACEMENT_3D ( 'NONE', #240, #13, #78 ) ;
#171 = ORGANIZATION ( 'UNSPECIFIED', 'UNSPECIFIED', '' ) ;
#172 = CARTESIAN_POINT ( 'NONE',  ( 5.014259338482531646E-30, 7.774045522999327609E-31, 1.436140953324973309E-15 ) ) ;
#173 = AXIS2_PLACEMENT_3D ( 'NONE', #172, #64, #1 ) ;
#174 = DIRECTION ( 'NONE',  ( -3.491481338843133355E-15, -5.413149388296985309E-16, -1.000000000000000000 ) ) ;
#175 = ADVANCED_FACE ( 'NONE', ( #124 ), #200, .T. ) ;
#176 = EDGE_LOOP ( 'NONE', ( #8 ) ) ;
#177 = CIRCLE ( 'NONE', #75, 2.883999999999991015 ) ;
#178 = ORIENTED_EDGE ( 'NONE', *, *, #121, .T. ) ;
#179 = VERTEX_POINT ( 'NONE', #94 ) ;
#180 = PERSON ( 'UNSPECIFIED', 'UNSPECIFIED', 'UNSPECIFIED', ('UNSPECIFIED'), ('UNSPECIFIED'), ('UNSPECIFIED') ) ;
#181 = FACE_OUTER_BOUND ( 'NONE', #194, .T. ) ;
#182 = DIRECTION ( 'NONE',  ( 3.153425691349006731E-31, 1.000000000000000000, 9.031770143711729009E-17 ) ) ;
#183 = APPROVAL_PERSON_ORGANIZATION ( #207, #37, #224 ) ;
#184 = PRODUCT ( '321480', '321480', '', ( #219 ) ) ;
#185 = DIRECTION ( 'NONE',  ( 0.0000000000000000000, 1.000000000000000000, 0.0000000000000000000 ) ) ;
#186 = PERSON_AND_ORGANIZATION_ROLE ( 'creator' ) ;
#187 = CC_DESIGN_PERSON_AND_ORGANIZATION_ASSIGNMENT ( #205, #237, ( #51 ) ) ;
#188 = LOCAL_TIME ( 11, 4, 15.00000000000000000, #105 ) ;
#189 = FACE_OUTER_BOUND ( 'NONE', #142, .T. ) ;
#190 = DESIGN_CONTEXT ( 'detailed design', #212, 'design' ) ;
#191 = CIRCLE ( 'NONE', #90, 1.599999999999994982 ) ;
#192 = CC_DESIGN_APPROVAL ( #10, ( #47 ) ) ;
#193 = AXIS2_PLACEMENT_3D ( 'NONE', #135, #174, #109 ) ;
#194 = EDGE_LOOP ( 'NONE', ( #5 ) ) ;
#195 = PERSON_AND_ORGANIZATION ( #180, #171 ) ;
#196 = PRODUCT_RELATED_PRODUCT_CATEGORY ( 'detail', '', ( #184 ) ) ;
#197 = ORIENTED_EDGE ( 'NONE', *, *, #230, .T. ) ;
#198 = DIRECTION ( 'NONE',  ( -3.491481338843133355E-15, 9.031770143711729009E-17, -1.000000000000000000 ) ) ;
#199 = CC_DESIGN_APPROVAL ( #77, ( #58 ) ) ;
#200 = PLANE ( 'NONE',  #218 ) ;
#201 = CARTESIAN_POINT ( 'NONE',  ( 2.793185071074506684E-13, -7.225416114969383207E-15, 80.00000000000000000 ) ) ;
#202 = CARTESIAN_POINT ( 'NONE',  ( 0.0000000000000000000, 0.0000000000000000000, 0.0000000000000000000 ) ) ;
#203 = CARTESIAN_POINT ( 'NONE',  ( 2.779219145719134403E-13, -7.189289034394536528E-15, 79.60000000000000853 ) ) ;
#204 = DIRECTION ( 'NONE',  ( -3.491481338843133355E-15, -5.413149388296985309E-16, -1.000000000000000000 ) ) ;
#205 = PERSON_AND_ORGANIZATION ( #180, #171 ) ;
#206 = DIRECTION ( 'NONE',  ( 0.0000000000000000000, 1.000000000000000000, 0.0000000000000000000 ) ) ;
#207 = PERSON_AND_ORGANIZATION ( #180, #171 ) ;
#208 = DIRECTION ( 'NONE',  ( 0.0000000000000000000, 1.000000000000000000, 0.0000000000000000000 ) ) ;
#209 = APPROVAL_DATE_TIME ( #227, #37 ) ;
#210 = DIRECTION ( 'NONE',  ( -3.491481338843133355E-15, 9.031770143711729009E-17, -1.000000000000000000 ) ) ;
#211 =( GEOMETRIC_REPRESENTATION_CONTEXT ( 3 ) GLOBAL_UNCERTAINTY_ASSIGNED_CONTEXT ( ( #115 ) ) GLOBAL_UNIT_ASSIGNED_CONTEXT ( ( #12, #9, #217 ) ) REPRESENTATION_CONTEXT ( 'NONE', 'WORKASPACE' ) );
#212 = APPLICATION_CONTEXT ( 'configuration controlled 3d designs of mechanical parts and assemblies' ) ;
#213 = ORIENTED_EDGE ( 'NONE', *, *, #159, .T. ) ;
#214 = CARTESIAN_POINT ( 'NONE',  ( 4.350639060341724014E-14, 2.883999999999998121, 12.46072551481333157 ) ) ;
#215 = ORIENTED_EDGE ( 'NONE', *, *, #52, .T. ) ;
#216 = DIRECTION ( 'NONE',  ( 0.0000000000000000000, 1.000000000000000000, 0.0000000000000000000 ) ) ;
#217 =( NAMED_UNIT ( * ) SI_UNIT ( $, .STERADIAN. ) SOLID_ANGLE_UNIT ( ) );
#218 = AXIS2_PLACEMENT_3D ( 'NONE', #33, #156, #140 ) ;
#219 = MECHANICAL_CONTEXT ( 'NONE', #152, 'mechanical' ) ;
#220 = EDGE_CURVE ( 'NONE', #137, #137, #3, .T. ) ;
#221 = FACE_BOUND ( 'NONE', #236, .T. ) ;
#222 = CONICAL_SURFACE ( 'NONE', #132, 1.999999999999995337, 0.7853981633974516097 ) ;
#223 = CARTESIAN_POINT ( 'NONE',  ( 0.0000000000000000000, 0.0000000000000000000, 0.0000000000000000000 ) ) ;
#224 = APPROVAL_ROLE ( '' ) ;
#225 = CARTESIAN_POINT ( 'NONE',  ( 4.350639060341724645E-14, 6.745176869824842366E-15, 12.46072551481333335 ) ) ;
#226 = CALENDAR_DATE ( 2021, 26, 11 ) ;
#227 = DATE_AND_TIME ( #226, #84 ) ;
#228 = LOCAL_TIME ( 11, 4, 15.00000000000000000, #238 ) ;
#229 = MANIFOLD_SOLID_BREP ( 'Corps-Déplacer/Copier1[2]', #148 ) ;
#230 = EDGE_CURVE ( 'NONE', #89, #89, #76, .T. ) ;
#231 = EDGE_LOOP ( 'NONE', ( #178 ) ) ;
#232 = PERSON_AND_ORGANIZATION_ROLE ( 'design_owner' ) ;
#233 = LOCAL_TIME ( 11, 4, 15.00000000000000000, #57 ) ;
#234 = CARTESIAN_POINT ( 'NONE',  ( 2.793185071074506684E-13, 1.599999999999987876, 80.00000000000000000 ) ) ;
#235 = ORIENTED_EDGE ( 'NONE', *, *, #52, .F. ) ;
#236 = EDGE_LOOP ( 'NONE', ( #29 ) ) ;
#237 = PERSON_AND_ORGANIZATION_ROLE ( 'classification_officer' ) ;
#238 = COORDINATED_UNIVERSAL_TIME_OFFSET ( 1, 0, .AHEAD. ) ;
#239 = CC_DESIGN_DATE_AND_TIME_ASSIGNMENT ( #23, #131, ( #51 ) ) ;
#240 = CARTESIAN_POINT ( 'NONE',  ( 2.793185071074506684E-13, -7.225416114969383207E-15, 80.00000000000000000 ) ) ;
#241 = APPROVAL_STATUS ( 'not_yet_approved' ) ;
#242 = DIRECTION ( 'NONE',  ( -3.491481338843133355E-15, 9.031770143711729009E-17, -1.000000000000000000 ) ) ;
#243 = SHAPE_DEFINITION_REPRESENTATION ( #165, #27 ) ;
ENDSEC;
END-ISO-10303-21;
