ISO-10303-21;
HEADER;
FILE_DESCRIPTION (( 'STEP AP203' ),
    '1' );
FILE_NAME ('321479.step',
    '2021-11-26T10:04:14',
    ( '' ),
    ( '' ),
    'SwSTEP 2.0',
    'SolidWorks 2019',
    '' );
FILE_SCHEMA (( 'CONFIG_CONTROL_DESIGN' ));
ENDSEC;

DATA;
#1 = ORIENTED_EDGE ( 'NONE', *, *, #227, .F. ) ;
#2 = CARTESIAN_POINT ( 'NONE',  ( 0.0000000000000000000, 0.0000000000000000000, 0.0000000000000000000 ) ) ;
#3 = CYLINDRICAL_SURFACE ( 'NONE', #154, 2.878999999999995119 ) ;
#4 = DIRECTION ( 'NONE',  ( -3.491481338843133355E-15, -5.407688754157972577E-16, -1.000000000000000000 ) ) ;
#5 = PERSON_AND_ORGANIZATION_ROLE ( 'classification_officer' ) ;
#6 = VERTEX_POINT ( 'NONE', #23 ) ;
#7 = CIRCLE ( 'NONE', #106, 2.878999999999999559 ) ;
#8 = DIRECTION ( 'NONE',  ( -3.153425691349006731E-31, -1.000000000000000000, -9.031770143711729009E-17 ) ) ;
#9 = PERSON_AND_ORGANIZATION_ROLE ( 'creator' ) ;
#10 = DATE_TIME_ROLE ( 'classification_date' ) ;
#11 = AXIS2_PLACEMENT_3D ( 'NONE', #151, #38, #54 ) ;
#12 = PERSON_AND_ORGANIZATION_ROLE ( 'design_supplier' ) ;
#13 = EDGE_LOOP ( 'NONE', ( #172 ) ) ;
#14 = APPROVAL_STATUS ( 'not_yet_approved' ) ;
#15 = CC_DESIGN_PERSON_AND_ORGANIZATION_ASSIGNMENT ( #187, #12, ( #84 ) ) ;
#16 = EDGE_LOOP ( 'NONE', ( #27 ) ) ;
#17 = DIRECTION ( 'NONE',  ( 0.0000000000000000000, 1.000000000000000000, 0.0000000000000000000 ) ) ;
#18 = AXIS2_PLACEMENT_3D ( 'NONE', #83, #170, #117 ) ;
#19 =( GEOMETRIC_REPRESENTATION_CONTEXT ( 3 ) GLOBAL_UNCERTAINTY_ASSIGNED_CONTEXT ( ( #37 ) ) GLOBAL_UNIT_ASSIGNED_CONTEXT ( ( #87, #162, #49 ) ) REPRESENTATION_CONTEXT ( 'NONE', 'WORKASPACE' ) );
#20 = EDGE_LOOP ( 'NONE', ( #124 ) ) ;
#21 = ADVANCED_FACE ( 'NONE', ( #57, #137 ), #110, .T. ) ;
#22 = DIRECTION ( 'NONE',  ( 3.153425691349006731E-31, 1.000000000000000000, 9.031770143711729009E-17 ) ) ;
#23 = CARTESIAN_POINT ( 'NONE',  ( 4.353662771878002149E-14, 2.878999999999998227, 12.46938576885117733 ) ) ;
#24 = CC_DESIGN_DATE_AND_TIME_ASSIGNMENT ( #73, #10, ( #56 ) ) ;
#25 = CARTESIAN_POINT ( 'NONE',  ( 2.779219145719134403E-13, 1.999999999999988010, 79.60000000000000853 ) ) ;
#26 = VERTEX_POINT ( 'NONE', #141 ) ;
#27 = ORIENTED_EDGE ( 'NONE', *, *, #134, .F. ) ;
#28 = AXIS2_PLACEMENT_3D ( 'NONE', #147, #217, #70 ) ;
#29 = FACE_OUTER_BOUND ( 'NONE', #13, .T. ) ;
#30 = CARTESIAN_POINT ( 'NONE',  ( 4.999760671315672060E-30, 7.743747404565408821E-31, 1.431988370005807122E-15 ) ) ;
#31 = CC_DESIGN_PERSON_AND_ORGANIZATION_ASSIGNMENT ( #111, #205, ( #84 ) ) ;
#32 = APPROVAL_PERSON_ORGANIZATION ( #239, #161, #240 ) ;
#33 = DATE_AND_TIME ( #71, #209 ) ;
#34 = ADVANCED_FACE ( 'NONE', ( #171, #195 ), #61, .T. ) ;
#35 = APPROVAL_STATUS ( 'not_yet_approved' ) ;
#36 = DIRECTION ( 'NONE',  ( -3.491481338843133355E-15, 9.031770143711729009E-17, -1.000000000000000000 ) ) ;
#37 = UNCERTAINTY_MEASURE_WITH_UNIT (LENGTH_MEASURE( 1.000000000000000082E-05 ), #87, 'distance_accuracy_value', 'NONE');
#38 = DIRECTION ( 'NONE',  ( 0.0000000000000000000, 0.0000000000000000000, 1.000000000000000000 ) ) ;
#39 = APPROVAL_DATE_TIME ( #112, #242 ) ;
#40 = APPLICATION_CONTEXT ( 'configuration controlled 3d designs of mechanical parts and assemblies' ) ;
#41 = CARTESIAN_POINT ( 'NONE',  ( 4.353662771878002149E-14, -1.126206260975339829E-15, 12.46938576885117733 ) ) ;
#42 = AXIS2_PLACEMENT_3D ( 'NONE', #211, #36, #17 ) ;
#43 = ORIENTED_EDGE ( 'NONE', *, *, #203, .T. ) ;
#44 = ADVANCED_FACE ( 'NONE', ( #159, #79 ), #3, .T. ) ;
#45 = PERSON ( 'UNSPECIFIED', 'UNSPECIFIED', 'UNSPECIFIED', ('UNSPECIFIED'), ('UNSPECIFIED'), ('UNSPECIFIED') ) ;
#46 = EDGE_LOOP ( 'NONE', ( #157 ) ) ;
#47 = CARTESIAN_POINT ( 'NONE',  ( 4.885231259955591070E-14, 1.999999999999990452, 13.99185842870425311 ) ) ;
#48 = CARTESIAN_POINT ( 'NONE',  ( 2.779219145719134403E-13, -7.189289034394536528E-15, 79.60000000000000853 ) ) ;
#49 =( NAMED_UNIT ( * ) SI_UNIT ( $, .STERADIAN. ) SOLID_ANGLE_UNIT ( ) );
#50 = CARTESIAN_POINT ( 'NONE',  ( 4.353662771878002780E-14, 6.743055719347397799E-15, 12.46938576885117911 ) ) ;
#51 = CIRCLE ( 'NONE', #138, 1.999999999999991784 ) ;
#52 = CC_DESIGN_PERSON_AND_ORGANIZATION_ASSIGNMENT ( #74, #132, ( #75 ) ) ;
#53 = DIRECTION ( 'NONE',  ( -3.491481338843133355E-15, -5.407688754157972577E-16, -1.000000000000000000 ) ) ;
#54 = DIRECTION ( 'NONE',  ( 1.000000000000000000, 0.0000000000000000000, 0.0000000000000000000 ) ) ;
#55 = ORIENTED_EDGE ( 'NONE', *, *, #96, .T. ) ;
#56 = SECURITY_CLASSIFICATION ( '', '', #93 ) ;
#57 = FACE_BOUND ( 'NONE', #20, .T. ) ;
#58 = COORDINATED_UNIVERSAL_TIME_OFFSET ( 1, 0, .AHEAD. ) ;
#59 = CC_DESIGN_PERSON_AND_ORGANIZATION_ASSIGNMENT ( #115, #9, ( #103 ) ) ;
#60 = AXIS2_PLACEMENT_3D ( 'NONE', #236, #53, #127 ) ;
#61 = CYLINDRICAL_SURFACE ( 'NONE', #234, 1.999999999999993561 ) ;
#62 = COORDINATED_UNIVERSAL_TIME_OFFSET ( 1, 0, .AHEAD. ) ;
#63 = ORIENTED_EDGE ( 'NONE', *, *, #97, .F. ) ;
#64 = EDGE_LOOP ( 'NONE', ( #81 ) ) ;
#65 = DIRECTION ( 'NONE',  ( 0.0000000000000000000, 1.000000000000000000, 0.0000000000000000000 ) ) ;
#66 = DIRECTION ( 'NONE',  ( -3.491481338843133355E-15, 9.031770143711729009E-17, -1.000000000000000000 ) ) ;
#67 = CIRCLE ( 'NONE', #131, 2.878999999999991566 ) ;
#68 = FACE_BOUND ( 'NONE', #140, .T. ) ;
#69 = CC_DESIGN_DATE_AND_TIME_ASSIGNMENT ( #165, #92, ( #103 ) ) ;
#70 = DIRECTION ( 'NONE',  ( 0.0000000000000000000, 1.000000000000000000, 0.0000000000000000000 ) ) ;
#71 = CALENDAR_DATE ( 2021, 26, 11 ) ;
#72 = ADVANCED_FACE ( 'NONE', ( #230, #120 ), #105, .T. ) ;
#73 = DATE_AND_TIME ( #156, #163 ) ;
#74 = PERSON_AND_ORGANIZATION ( #45, #191 ) ;
#75 = PRODUCT ( '321479', '321479', '', ( #241 ) ) ;
#76 = CC_DESIGN_APPROVAL ( #161, ( #84 ) ) ;
#77 = APPLICATION_PROTOCOL_DEFINITION ( 'international standard', 'config_control_design', 1994, #40 ) ;
#78 = CIRCLE ( 'NONE', #238, 1.999999999999995337 ) ;
#79 = FACE_OUTER_BOUND ( 'NONE', #99, .T. ) ;
#80 = ORIENTED_EDGE ( 'NONE', *, *, #97, .T. ) ;
#81 = ORIENTED_EDGE ( 'NONE', *, *, #186, .F. ) ;
#82 = AXIS2_PLACEMENT_3D ( 'NONE', #89, #232, #233 ) ;
#83 = CARTESIAN_POINT ( 'NONE',  ( 4.999760671315672060E-30, 7.743747404565408821E-31, 1.431988370005807122E-15 ) ) ;
#84 = PRODUCT_DEFINITION_FORMATION_WITH_SPECIFIED_SOURCE ( 'ANY', '', #75, .NOT_KNOWN. ) ;
#85 = CARTESIAN_POINT ( 'NONE',  ( 2.793185071074506684E-13, 1.599999999999987876, 80.00000000000000000 ) ) ;
#86 = DIRECTION ( 'NONE',  ( -1.888084437141443726E-30, 1.000000000000000000, -5.407688754157972577E-16 ) ) ;
#87 =( LENGTH_UNIT ( ) NAMED_UNIT ( * ) SI_UNIT ( .MILLI., .METRE. ) );
#88 = CIRCLE ( 'NONE', #42, 1.599999999999994982 ) ;
#89 = CARTESIAN_POINT ( 'NONE',  ( 4.353662771878002149E-14, 6.743055719347397799E-15, 12.46938576885117733 ) ) ;
#90 = COORDINATED_UNIVERSAL_TIME_OFFSET ( 1, 0, .AHEAD. ) ;
#91 = APPROVAL_ROLE ( '' ) ;
#92 = DATE_TIME_ROLE ( 'creation_date' ) ;
#93 = SECURITY_CLASSIFICATION_LEVEL ( 'unclassified' ) ;
#94 = PERSON_AND_ORGANIZATION ( #45, #191 ) ;
#95 = CC_DESIGN_SECURITY_CLASSIFICATION ( #56, ( #84 ) ) ;
#96 = EDGE_CURVE ( 'NONE', #122, #122, #193, .T. ) ;
#97 = EDGE_CURVE ( 'NONE', #175, #175, #88, .T. ) ;
#98 = FACE_OUTER_BOUND ( 'NONE', #129, .T. ) ;
#99 = EDGE_LOOP ( 'NONE', ( #206 ) ) ;
#100 = EDGE_LOOP ( 'NONE', ( #107 ) ) ;
#101 = VERTEX_POINT ( 'NONE', #102 ) ;
#102 = CARTESIAN_POINT ( 'NONE',  ( 4.353662771878002149E-14, 2.878999999999998227, 12.46938576885117733 ) ) ;
#103 = PRODUCT_DEFINITION ( 'UNKNOWN', '', #84, #188 ) ;
#104 = CARTESIAN_POINT ( 'NONE',  ( 4.353662771878002149E-14, 2.878999999999998227, 12.46938576885117733 ) ) ;
#105 = CONICAL_SURFACE ( 'NONE', #18, 2.648059892324148734, 0.5235987755982978165 ) ;
#106 = AXIS2_PLACEMENT_3D ( 'NONE', #220, #174, #108 ) ;
#107 = ORIENTED_EDGE ( 'NONE', *, *, #179, .T. ) ;
#108 = DIRECTION ( 'NONE',  ( 0.0000000000000000000, 1.000000000000000000, 0.0000000000000000000 ) ) ;
#109 = CARTESIAN_POINT ( 'NONE',  ( 4.885231259955591070E-14, -1.263712492114123682E-15, 13.99185842870425311 ) ) ;
#110 = CONICAL_SURFACE ( 'NONE', #208, 2.878999999999999559, 0.5235987755982930425 ) ;
#111 = PERSON_AND_ORGANIZATION ( #45, #191 ) ;
#112 = DATE_AND_TIME ( #189, #144 ) ;
#113 = APPROVAL_STATUS ( 'not_yet_approved' ) ;
#114 = ADVANCED_FACE ( 'NONE', ( #98 ), #202, .T. ) ;
#115 = PERSON_AND_ORGANIZATION ( #45, #191 ) ;
#116 = DIRECTION ( 'NONE',  ( 0.0000000000000000000, 1.000000000000000000, 0.0000000000000000000 ) ) ;
#117 = DIRECTION ( 'NONE',  ( 1.888084437141443726E-30, -1.000000000000000000, 5.407688754157972577E-16 ) ) ;
#118 = DIRECTION ( 'NONE',  ( -3.491481338843133355E-15, 9.031770143711729009E-17, -1.000000000000000000 ) ) ;
#119 = DIRECTION ( 'NONE',  ( -3.491481338843133355E-15, 9.031770143711729009E-17, -1.000000000000000000 ) ) ;
#120 = FACE_BOUND ( 'NONE', #16, .T. ) ;
#121 = PLANE ( 'NONE',  #135 ) ;
#122 = VERTEX_POINT ( 'NONE', #204 ) ;
#123 = CARTESIAN_POINT ( 'NONE',  ( 2.793185071074506684E-13, -7.225416114969383207E-15, 80.00000000000000000 ) ) ;
#124 = ORIENTED_EDGE ( 'NONE', *, *, #186, .T. ) ;
#125 = DIRECTION ( 'NONE',  ( -3.491481338843133355E-15, -5.407688754157972577E-16, -1.000000000000000000 ) ) ;
#126 = CONICAL_SURFACE ( 'NONE', #28, 1.999999999999995337, 0.7853981633974516097 ) ;
#127 = DIRECTION ( 'NONE',  ( -1.888084437141443376E-30, 1.000000000000000000, -5.407688754157972577E-16 ) ) ;
#128 = CALENDAR_DATE ( 2021, 26, 11 ) ;
#129 = EDGE_LOOP ( 'NONE', ( #1 ) ) ;
#130 = APPLICATION_PROTOCOL_DEFINITION ( 'international standard', 'config_control_design', 1994, #196 ) ;
#131 = AXIS2_PLACEMENT_3D ( 'NONE', #50, #178, #164 ) ;
#132 = PERSON_AND_ORGANIZATION_ROLE ( 'design_owner' ) ;
#133 = DIRECTION ( 'NONE',  ( -1.873082266163342351E-30, 1.000000000000000000, -5.460552796470935133E-16 ) ) ;
#134 = EDGE_CURVE ( 'NONE', #26, #26, #224, .T. ) ;
#135 = AXIS2_PLACEMENT_3D ( 'NONE', #123, #181, #8 ) ;
#136 = DIRECTION ( 'NONE',  ( -3.491481338843133355E-15, -5.407688754157972577E-16, -1.000000000000000000 ) ) ;
#137 = FACE_OUTER_BOUND ( 'NONE', #169, .T. ) ;
#138 = AXIS2_PLACEMENT_3D ( 'NONE', #109, #219, #145 ) ;
#139 = DIRECTION ( 'NONE',  ( -1.888084437141443376E-30, 1.000000000000000000, -5.407688754157972577E-16 ) ) ;
#140 = EDGE_LOOP ( 'NONE', ( #80 ) ) ;
#141 = CARTESIAN_POINT ( 'NONE',  ( 0.0000000000000000000, 2.648059892324148734, 0.0000000000000000000 ) ) ;
#142 = CLOSED_SHELL ( 'NONE', ( #231, #153, #34, #21, #166 ) ) ;
#143 = FACE_OUTER_BOUND ( 'NONE', #223, .T. ) ;
#144 = LOCAL_TIME ( 11, 4, 14.00000000000000000, #58 ) ;
#145 = DIRECTION ( 'NONE',  ( 0.0000000000000000000, 1.000000000000000000, 0.0000000000000000000 ) ) ;
#146 = MANIFOLD_SOLID_BREP ( 'Corps-Déplacer/Copier1[1]', #142 ) ;
#147 = CARTESIAN_POINT ( 'NONE',  ( 2.779219145719134403E-13, -7.189289034394536528E-15, 79.60000000000000853 ) ) ;
#148 = DIRECTION ( 'NONE',  ( -3.491481338843133355E-15, 9.031770143711729009E-17, -1.000000000000000000 ) ) ;
#149 = AXIS2_PLACEMENT_3D ( 'NONE', #30, #125, #86 ) ;
#150 = APPROVAL_DATE_TIME ( #33, #161 ) ;
#151 = CARTESIAN_POINT ( 'NONE',  ( 0.0000000000000000000, 0.0000000000000000000, 0.0000000000000000000 ) ) ;
#152 = PERSON_AND_ORGANIZATION ( #45, #191 ) ;
#153 = ADVANCED_FACE ( 'NONE', ( #68, #29 ), #126, .T. ) ;
#154 = AXIS2_PLACEMENT_3D ( 'NONE', #2, #136, #139 ) ;
#155 = LOCAL_TIME ( 11, 4, 14.00000000000000000, #90 ) ;
#156 = CALENDAR_DATE ( 2021, 26, 11 ) ;
#157 = ORIENTED_EDGE ( 'NONE', *, *, #227, .T. ) ;
#158 = PRODUCT_RELATED_PRODUCT_CATEGORY ( 'detail', '', ( #75 ) ) ;
#159 = FACE_OUTER_BOUND ( 'NONE', #46, .T. ) ;
#160 = FACE_OUTER_BOUND ( 'NONE', #225, .T. ) ;
#161 = APPROVAL ( #35, 'UNSPECIFIED' ) ;
#162 =( NAMED_UNIT ( * ) PLANE_ANGLE_UNIT ( ) SI_UNIT ( $, .RADIAN. ) );
#163 = LOCAL_TIME ( 11, 4, 14.00000000000000000, #62 ) ;
#164 = DIRECTION ( 'NONE',  ( -2.140665447043825085E-30, 1.000000000000000000, -6.025437568519666807E-16 ) ) ;
#165 = DATE_AND_TIME ( #183, #155 ) ;
#166 = ADVANCED_FACE ( 'NONE', ( #143 ), #222, .T. ) ;
#167 = CC_DESIGN_APPROVAL ( #242, ( #103 ) ) ;
#168 = COORDINATED_UNIVERSAL_TIME_OFFSET ( 1, 0, .AHEAD. ) ;
#169 = EDGE_LOOP ( 'NONE', ( #173 ) ) ;
#170 = DIRECTION ( 'NONE',  ( 3.491481338843133355E-15, 5.407688754157972577E-16, 1.000000000000000000 ) ) ;
#171 = FACE_OUTER_BOUND ( 'NONE', #100, .T. ) ;
#172 = ORIENTED_EDGE ( 'NONE', *, *, #179, .F. ) ;
#173 = ORIENTED_EDGE ( 'NONE', *, *, #203, .F. ) ;
#174 = DIRECTION ( 'NONE',  ( -3.491481338843133355E-15, 9.031770143711729009E-17, -1.000000000000000000 ) ) ;
#175 = VERTEX_POINT ( 'NONE', #85 ) ;
#176 = LOCAL_TIME ( 11, 4, 14.00000000000000000, #168 ) ;
#177 = ORIENTED_EDGE ( 'NONE', *, *, #134, .T. ) ;
#178 = DIRECTION ( 'NONE',  ( -3.491481338843133355E-15, -5.407688754157972577E-16, -1.000000000000000000 ) ) ;
#179 = EDGE_CURVE ( 'NONE', #197, #197, #78, .T. ) ;
#180 = APPROVAL_DATE_TIME ( #243, #201 ) ;
#181 = DIRECTION ( 'NONE',  ( 3.491481338843133355E-15, -9.031770143711729009E-17, 1.000000000000000000 ) ) ;
#182 = PRODUCT_DEFINITION_SHAPE ( 'NONE', 'NONE',  #103 ) ;
#183 = CALENDAR_DATE ( 2021, 26, 11 ) ;
#184 = EDGE_LOOP ( 'NONE', ( #63 ) ) ;
#185 = SHAPE_DEFINITION_REPRESENTATION ( #182, #218 ) ;
#186 = EDGE_CURVE ( 'NONE', #214, #214, #51, .T. ) ;
#187 = PERSON_AND_ORGANIZATION ( #45, #191 ) ;
#188 = DESIGN_CONTEXT ( 'detailed design', #40, 'design' ) ;
#189 = CALENDAR_DATE ( 2021, 26, 11 ) ;
#190 = AXIS2_PLACEMENT_3D ( 'NONE', #192, #4, #133 ) ;
#191 = ORGANIZATION ( 'UNSPECIFIED', 'UNSPECIFIED', '' ) ;
#192 = CARTESIAN_POINT ( 'NONE',  ( 1.396592535537258667E-15, 2.163075501663197412E-16, 0.4000000000000015210 ) ) ;
#193 = CIRCLE ( 'NONE', #190, 2.878999999999998671 ) ;
#194 = CC_DESIGN_APPROVAL ( #201, ( #56 ) ) ;
#195 = FACE_OUTER_BOUND ( 'NONE', #64, .T. ) ;
#196 = APPLICATION_CONTEXT ( 'configuration controlled 3d designs of mechanical parts and assemblies' ) ;
#197 = VERTEX_POINT ( 'NONE', #25 ) ;
#198 = DIRECTION ( 'NONE',  ( 3.153425691349006731E-31, 1.000000000000000000, 9.031770143711729009E-17 ) ) ;
#199 = FACE_OUTER_BOUND ( 'NONE', #184, .T. ) ;
#200 = EDGE_LOOP ( 'NONE', ( #55 ) ) ;
#201 = APPROVAL ( #14, 'UNSPECIFIED' ) ;
#202 = PLANE ( 'NONE',  #82 ) ;
#203 = EDGE_CURVE ( 'NONE', #6, #6, #7, .T. ) ;
#204 = CARTESIAN_POINT ( 'NONE',  ( 1.396592535537253342E-15, 2.878999999999998671, 0.3999999999999999667 ) ) ;
#205 = PERSON_AND_ORGANIZATION_ROLE ( 'creator' ) ;
#206 = ORIENTED_EDGE ( 'NONE', *, *, #96, .F. ) ;
#207 = COORDINATED_UNIVERSAL_TIME_OFFSET ( 1, 0, .AHEAD. ) ;
#208 = AXIS2_PLACEMENT_3D ( 'NONE', #41, #119, #116 ) ;
#209 = LOCAL_TIME ( 11, 4, 14.00000000000000000, #207 ) ;
#210 = PERSON_AND_ORGANIZATION ( #45, #191 ) ;
#211 = CARTESIAN_POINT ( 'NONE',  ( 2.793185071074506684E-13, -7.225416114969383207E-15, 80.00000000000000000 ) ) ;
#212 = CC_DESIGN_PERSON_AND_ORGANIZATION_ASSIGNMENT ( #152, #5, ( #56 ) ) ;
#213 = CARTESIAN_POINT ( 'NONE',  ( 0.0000000000000000000, 0.0000000000000000000, 0.0000000000000000000 ) ) ;
#214 = VERTEX_POINT ( 'NONE', #47 ) ;
#215 = CLOSED_SHELL ( 'NONE', ( #114, #44, #72, #235 ) ) ;
#216 = APPROVAL_PERSON_ORGANIZATION ( #210, #242, #228 ) ;
#217 = DIRECTION ( 'NONE',  ( -3.491481338843133355E-15, 9.031770143711729009E-17, -1.000000000000000000 ) ) ;
#218 = ADVANCED_BREP_SHAPE_REPRESENTATION ( '321479', ( #146, #226, #11 ), #19 ) ;
#219 = DIRECTION ( 'NONE',  ( -3.491481338843133355E-15, 9.031770143711729009E-17, -1.000000000000000000 ) ) ;
#220 = CARTESIAN_POINT ( 'NONE',  ( 4.353662771878002149E-14, -1.126206260975339829E-15, 12.46938576885117733 ) ) ;
#221 = APPROVAL_PERSON_ORGANIZATION ( #94, #201, #91 ) ;
#222 = PLANE ( 'NONE',  #229 ) ;
#223 = EDGE_LOOP ( 'NONE', ( #43 ) ) ;
#224 = CIRCLE ( 'NONE', #149, 2.648059892324148734 ) ;
#225 = EDGE_LOOP ( 'NONE', ( #177 ) ) ;
#226 = MANIFOLD_SOLID_BREP ( 'Corps-Déplacer/Copier1[2]', #215 ) ;
#227 = EDGE_CURVE ( 'NONE', #101, #101, #67, .T. ) ;
#228 = APPROVAL_ROLE ( '' ) ;
#229 = AXIS2_PLACEMENT_3D ( 'NONE', #104, #66, #198 ) ;
#230 = FACE_OUTER_BOUND ( 'NONE', #200, .T. ) ;
#231 = ADVANCED_FACE ( 'NONE', ( #199 ), #121, .T. ) ;
#232 = DIRECTION ( 'NONE',  ( 3.491481338843133355E-15, 5.407688754157972577E-16, 1.000000000000000000 ) ) ;
#233 = DIRECTION ( 'NONE',  ( 1.888084437141443376E-30, -1.000000000000000000, 5.407688754157972577E-16 ) ) ;
#234 = AXIS2_PLACEMENT_3D ( 'NONE', #213, #118, #22 ) ;
#235 = ADVANCED_FACE ( 'NONE', ( #160 ), #237, .T. ) ;
#236 = CARTESIAN_POINT ( 'NONE',  ( -2.499880335657836030E-30, 2.648059892324148734, -7.159941850029035609E-16 ) ) ;
#237 = PLANE ( 'NONE',  #60 ) ;
#238 = AXIS2_PLACEMENT_3D ( 'NONE', #48, #148, #65 ) ;
#239 = PERSON_AND_ORGANIZATION ( #45, #191 ) ;
#240 = APPROVAL_ROLE ( '' ) ;
#241 = MECHANICAL_CONTEXT ( 'NONE', #196, 'mechanical' ) ;
#242 = APPROVAL ( #113, 'UNSPECIFIED' ) ;
#243 = DATE_AND_TIME ( #128, #176 ) ;
ENDSEC;
END-ISO-10303-21;
