ISO-10303-21;
HEADER;
FILE_DESCRIPTION (( 'STEP AP203' ),
    '1' );
FILE_NAME ('321478.step',
    '2021-11-26T10:04:14',
    ( '' ),
    ( '' ),
    'SwSTEP 2.0',
    'SolidWorks 2019',
    '' );
FILE_SCHEMA (( 'CONFIG_CONTROL_DESIGN' ));
ENDSEC;

DATA;
#1 = DIRECTION ( 'NONE',  ( 0.0000000000000000000, 1.000000000000000000, 0.0000000000000000000 ) ) ;
#2 = CIRCLE ( 'NONE', #41, 1.999999999999991784 ) ;
#3 = CC_DESIGN_APPROVAL ( #207, ( #19 ) ) ;
#4 = CARTESIAN_POINT ( 'NONE',  ( 4.356686483414279654E-14, 6.740934568869952444E-15, 12.47804602288902132 ) ) ;
#5 = CC_DESIGN_PERSON_AND_ORGANIZATION_ASSIGNMENT ( #97, #83, ( #78 ) ) ;
#6 = DIRECTION ( 'NONE',  ( 1.886180513391214318E-30, -1.000000000000000000, 5.402235699808097538E-16 ) ) ;
#7 = EDGE_LOOP ( 'NONE', ( #213 ) ) ;
#8 = FACE_OUTER_BOUND ( 'NONE', #99, .T. ) ;
#9 = APPROVAL_ROLE ( '' ) ;
#10 = VERTEX_POINT ( 'NONE', #67 ) ;
#11 = EDGE_CURVE ( 'NONE', #70, #70, #113, .T. ) ;
#12 = AXIS2_PLACEMENT_3D ( 'NONE', #185, #24, #215 ) ;
#13 = PLANE ( 'NONE',  #115 ) ;
#14 = FACE_OUTER_BOUND ( 'NONE', #31, .T. ) ;
#15 = COORDINATED_UNIVERSAL_TIME_OFFSET ( 1, 0, .AHEAD. ) ;
#16 = APPROVAL_DATE_TIME ( #216, #169 ) ;
#17 = EDGE_LOOP ( 'NONE', ( #228 ) ) ;
#18 = EDGE_CURVE ( 'NONE', #26, #26, #156, .T. ) ;
#19 = SECURITY_CLASSIFICATION ( '', '', #154 ) ;
#20 = EDGE_CURVE ( 'NONE', #52, #52, #212, .T. ) ;
#21 = FACE_OUTER_BOUND ( 'NONE', #85, .T. ) ;
#22 = DIRECTION ( 'NONE',  ( 0.0000000000000000000, 1.000000000000000000, 0.0000000000000000000 ) ) ;
#23 = AXIS2_PLACEMENT_3D ( 'NONE', #140, #124, #6 ) ;
#24 = DIRECTION ( 'NONE',  ( -3.491481338843133355E-15, 9.031770143711729009E-17, -1.000000000000000000 ) ) ;
#25 = ORIENTED_EDGE ( 'NONE', *, *, #223, .T. ) ;
#26 = VERTEX_POINT ( 'NONE', #130 ) ;
#27 = CC_DESIGN_DATE_AND_TIME_ASSIGNMENT ( #139, #214, ( #19 ) ) ;
#28 = FACE_OUTER_BOUND ( 'NONE', #171, .T. ) ;
#29 = PERSON ( 'UNSPECIFIED', 'UNSPECIFIED', 'UNSPECIFIED', ('UNSPECIFIED'), ('UNSPECIFIED'), ('UNSPECIFIED') ) ;
#30 = CIRCLE ( 'NONE', #74, 1.599999999999994982 ) ;
#31 = EDGE_LOOP ( 'NONE', ( #51 ) ) ;
#32 = APPROVAL_PERSON_ORGANIZATION ( #37, #207, #9 ) ;
#33 = VERTEX_POINT ( 'NONE', #167 ) ;
#34 = ORIENTED_EDGE ( 'NONE', *, *, #122, .F. ) ;
#35 = DIRECTION ( 'NONE',  ( 0.0000000000000000000, 0.0000000000000000000, 1.000000000000000000 ) ) ;
#36 = APPLICATION_PROTOCOL_DEFINITION ( 'international standard', 'config_control_design', 1994, #178 ) ;
#37 = PERSON_AND_ORGANIZATION ( #29, #163 ) ;
#38 = FACE_OUTER_BOUND ( 'NONE', #173, .T. ) ;
#39 = CARTESIAN_POINT ( 'NONE',  ( 0.0000000000000000000, 0.0000000000000000000, 0.0000000000000000000 ) ) ;
#40 = APPROVAL_STATUS ( 'not_yet_approved' ) ;
#41 = AXIS2_PLACEMENT_3D ( 'NONE', #72, #220, #150 ) ;
#42 = EDGE_LOOP ( 'NONE', ( #186 ) ) ;
#43 = AXIS2_PLACEMENT_3D ( 'NONE', #103, #202, #121 ) ;
#44 = EDGE_LOOP ( 'NONE', ( #131 ) ) ;
#45 = ADVANCED_FACE ( 'NONE', ( #107, #104 ), #138, .T. ) ;
#46 = PRODUCT_DEFINITION_FORMATION_WITH_SPECIFIED_SOURCE ( 'ANY', '', #204, .NOT_KNOWN. ) ;
#47 = PLANE ( 'NONE',  #43 ) ;
#48 = DIRECTION ( 'NONE',  ( 3.153425691349006731E-31, 1.000000000000000000, 9.031770143711729009E-17 ) ) ;
#49 = CC_DESIGN_APPROVAL ( #169, ( #78 ) ) ;
#50 = FACE_OUTER_BOUND ( 'NONE', #17, .T. ) ;
#51 = ORIENTED_EDGE ( 'NONE', *, *, #158, .T. ) ;
#52 = VERTEX_POINT ( 'NONE', #132 ) ;
#53 = AXIS2_PLACEMENT_3D ( 'NONE', #142, #217, #180 ) ;
#54 = LOCAL_TIME ( 11, 4, 14.00000000000000000, #64 ) ;
#55 = APPROVAL_ROLE ( '' ) ;
#56 = ORIENTED_EDGE ( 'NONE', *, *, #94, .T. ) ;
#57 = CC_DESIGN_PERSON_AND_ORGANIZATION_ASSIGNMENT ( #100, #210, ( #46 ) ) ;
#58 = DIRECTION ( 'NONE',  ( -1.886180513391214669E-30, 1.000000000000000000, -5.402235699808097538E-16 ) ) ;
#59 = APPROVAL_ROLE ( '' ) ;
#60 = DATE_AND_TIME ( #160, #134 ) ;
#61 = ADVANCED_FACE ( 'NONE', ( #66, #86 ), #109, .T. ) ;
#62 = LOCAL_TIME ( 11, 4, 14.00000000000000000, #172 ) ;
#63 = DIRECTION ( 'NONE',  ( -3.491481338843133355E-15, -5.402235699808097538E-16, -1.000000000000000000 ) ) ;
#64 = COORDINATED_UNIVERSAL_TIME_OFFSET ( 1, 0, .AHEAD. ) ;
#65 = CARTESIAN_POINT ( 'NONE',  ( 1.396592535537258667E-15, 2.160894279923247200E-16, 0.4000000000000015210 ) ) ;
#66 = FACE_BOUND ( 'NONE', #143, .T. ) ;
#67 = CARTESIAN_POINT ( 'NONE',  ( 2.779219145719134403E-13, 1.999999999999988010, 79.60000000000000853 ) ) ;
#68 = DIRECTION ( 'NONE',  ( -3.491481338843133355E-15, 9.031770143711729009E-17, -1.000000000000000000 ) ) ;
#69 = CONICAL_SURFACE ( 'NONE', #93, 2.873999999999999666, 0.5235987755982928205 ) ;
#70 = VERTEX_POINT ( 'NONE', #147 ) ;
#71 = DESIGN_CONTEXT ( 'detailed design', #178, 'design' ) ;
#72 = CARTESIAN_POINT ( 'NONE',  ( 4.885231259955591070E-14, -1.263712492114123682E-15, 13.99185842870425311 ) ) ;
#73 = DATE_AND_TIME ( #238, #182 ) ;
#74 = AXIS2_PLACEMENT_3D ( 'NONE', #123, #198, #22 ) ;
#75 =( GEOMETRIC_REPRESENTATION_CONTEXT ( 3 ) GLOBAL_UNCERTAINTY_ASSIGNED_CONTEXT ( ( #110 ) ) GLOBAL_UNIT_ASSIGNED_CONTEXT ( ( #189, #190, #145 ) ) REPRESENTATION_CONTEXT ( 'NONE', 'WORKASPACE' ) );
#76 = AXIS2_PLACEMENT_3D ( 'NONE', #149, #235, #236 ) ;
#77 = PERSON_AND_ORGANIZATION_ROLE ( 'design_supplier' ) ;
#78 = PRODUCT_DEFINITION ( 'UNKNOWN', '', #46, #71 ) ;
#79 = APPLICATION_CONTEXT ( 'configuration controlled 3d designs of mechanical parts and assemblies' ) ;
#80 = EDGE_LOOP ( 'NONE', ( #34 ) ) ;
#81 = PERSON_AND_ORGANIZATION_ROLE ( 'classification_officer' ) ;
#82 = LOCAL_TIME ( 11, 4, 14.00000000000000000, #211 ) ;
#83 = PERSON_AND_ORGANIZATION_ROLE ( 'creator' ) ;
#84 = DIRECTION ( 'NONE',  ( -1.876340933988957242E-30, 1.000000000000000000, -5.470052714349276838E-16 ) ) ;
#85 = EDGE_LOOP ( 'NONE', ( #232 ) ) ;
#86 = FACE_OUTER_BOUND ( 'NONE', #42, .T. ) ;
#87 = AXIS2_PLACEMENT_3D ( 'NONE', #65, #144, #84 ) ;
#88 = CARTESIAN_POINT ( 'NONE',  ( 4.356686483414279022E-14, -1.126988435213899322E-15, 12.47804602288901954 ) ) ;
#89 = VERTEX_POINT ( 'NONE', #165 ) ;
#90 = FACE_OUTER_BOUND ( 'NONE', #240, .T. ) ;
#91 = CARTESIAN_POINT ( 'NONE',  ( 0.0000000000000000000, 0.0000000000000000000, 0.0000000000000000000 ) ) ;
#92 = DIRECTION ( 'NONE',  ( -3.491481338843133355E-15, 9.031770143711729009E-17, -1.000000000000000000 ) ) ;
#93 = AXIS2_PLACEMENT_3D ( 'NONE', #166, #129, #191 ) ;
#94 = EDGE_CURVE ( 'NONE', #233, #233, #227, .T. ) ;
#95 = DIRECTION ( 'NONE',  ( -3.491481338843133355E-15, 9.031770143711729009E-17, -1.000000000000000000 ) ) ;
#96 = EDGE_LOOP ( 'NONE', ( #183 ) ) ;
#97 = PERSON_AND_ORGANIZATION ( #29, #163 ) ;
#98 = PERSON_AND_ORGANIZATION ( #29, #163 ) ;
#99 = EDGE_LOOP ( 'NONE', ( #137 ) ) ;
#100 = PERSON_AND_ORGANIZATION ( #29, #163 ) ;
#101 = DATE_AND_TIME ( #161, #54 ) ;
#102 = AXIS2_PLACEMENT_3D ( 'NONE', #201, #63, #58 ) ;
#103 = CARTESIAN_POINT ( 'NONE',  ( -2.492644032313846485E-30, 2.643059892324149285, -7.139216253522232149E-16 ) ) ;
#104 = FACE_BOUND ( 'NONE', #7, .T. ) ;
#105 = ADVANCED_FACE ( 'NONE', ( #38 ), #47, .T. ) ;
#106 = PRODUCT_DEFINITION_SHAPE ( 'NONE', 'NONE',  #78 ) ;
#107 = FACE_OUTER_BOUND ( 'NONE', #44, .T. ) ;
#108 = APPLICATION_PROTOCOL_DEFINITION ( 'international standard', 'config_control_design', 1994, #79 ) ;
#109 = CONICAL_SURFACE ( 'NONE', #12, 1.999999999999995337, 0.7853981633974516097 ) ;
#110 = UNCERTAINTY_MEASURE_WITH_UNIT (LENGTH_MEASURE( 1.000000000000000082E-05 ), #189, 'distance_accuracy_value', 'NONE');
#111 = ORIENTED_EDGE ( 'NONE', *, *, #11, .F. ) ;
#112 = CARTESIAN_POINT ( 'NONE',  ( 2.779219145719134403E-13, -7.189289034394536528E-15, 79.60000000000000853 ) ) ;
#113 = CIRCLE ( 'NONE', #146, 2.873999999999991672 ) ;
#114 = PERSON_AND_ORGANIZATION ( #29, #163 ) ;
#115 = AXIS2_PLACEMENT_3D ( 'NONE', #225, #127, #208 ) ;
#116 = APPROVAL_STATUS ( 'not_yet_approved' ) ;
#117 = DIRECTION ( 'NONE',  ( 1.000000000000000000, 0.0000000000000000000, 0.0000000000000000000 ) ) ;
#118 = ADVANCED_FACE ( 'NONE', ( #21, #179 ), #162, .T. ) ;
#119 = PERSON_AND_ORGANIZATION_ROLE ( 'design_owner' ) ;
#120 = AXIS2_PLACEMENT_3D ( 'NONE', #112, #68, #203 ) ;
#121 = DIRECTION ( 'NONE',  ( -1.886180513391214669E-30, 1.000000000000000000, -5.402235699808097538E-16 ) ) ;
#122 = EDGE_CURVE ( 'NONE', #33, #33, #30, .T. ) ;
#123 = CARTESIAN_POINT ( 'NONE',  ( 2.793185071074506684E-13, -7.225416114969383207E-15, 80.00000000000000000 ) ) ;
#124 = DIRECTION ( 'NONE',  ( 3.491481338843133355E-15, 5.402235699808097538E-16, 1.000000000000000000 ) ) ;
#125 = DIRECTION ( 'NONE',  ( -3.491481338843133355E-15, -5.402235699808097538E-16, -1.000000000000000000 ) ) ;
#126 = DIRECTION ( 'NONE',  ( -2.144389638844527517E-30, 1.000000000000000000, -6.035920236523354138E-16 ) ) ;
#127 = DIRECTION ( 'NONE',  ( 3.491481338843133355E-15, 5.402235699808097538E-16, 1.000000000000000000 ) ) ;
#128 = ADVANCED_BREP_SHAPE_REPRESENTATION ( '321478', ( #148, #226, #153 ), #75 ) ;
#129 = DIRECTION ( 'NONE',  ( -3.491481338843133355E-15, 9.031770143711729009E-17, -1.000000000000000000 ) ) ;
#130 = CARTESIAN_POINT ( 'NONE',  ( 1.396592535537253342E-15, 2.873999999999998778, 0.3999999999999999667 ) ) ;
#131 = ORIENTED_EDGE ( 'NONE', *, *, #18, .T. ) ;
#132 = CARTESIAN_POINT ( 'NONE',  ( 6.842277657836020854E-46, 2.643059892324149285, 0.0000000000000000000 ) ) ;
#133 = CC_DESIGN_PERSON_AND_ORGANIZATION_ASSIGNMENT ( #239, #77, ( #46 ) ) ;
#134 = LOCAL_TIME ( 11, 4, 14.00000000000000000, #241 ) ;
#135 = ORIENTED_EDGE ( 'NONE', *, *, #122, .T. ) ;
#136 = PERSON_AND_ORGANIZATION ( #29, #163 ) ;
#137 = ORIENTED_EDGE ( 'NONE', *, *, #223, .F. ) ;
#138 = CONICAL_SURFACE ( 'NONE', #23, 2.643059892324149285, 0.5235987755982978165 ) ;
#139 = DATE_AND_TIME ( #155, #82 ) ;
#140 = CARTESIAN_POINT ( 'NONE',  ( 4.985288064627692970E-30, 7.713545782685605237E-31, 1.427843250704446430E-15 ) ) ;
#141 = CLOSED_SHELL ( 'NONE', ( #234, #61, #218, #230, #231 ) ) ;
#142 = CARTESIAN_POINT ( 'NONE',  ( 0.0000000000000000000, 0.0000000000000000000, 0.0000000000000000000 ) ) ;
#143 = EDGE_LOOP ( 'NONE', ( #135 ) ) ;
#144 = DIRECTION ( 'NONE',  ( -3.491481338843133355E-15, -5.402235699808097538E-16, -1.000000000000000000 ) ) ;
#145 =( NAMED_UNIT ( * ) SI_UNIT ( $, .STERADIAN. ) SOLID_ANGLE_UNIT ( ) );
#146 = AXIS2_PLACEMENT_3D ( 'NONE', #4, #125, #126 ) ;
#147 = CARTESIAN_POINT ( 'NONE',  ( 4.356686483414279022E-14, 2.873999999999998334, 12.47804602288901954 ) ) ;
#148 = MANIFOLD_SOLID_BREP ( 'Corps-Déplacer/Copier1[1]', #141 ) ;
#149 = CARTESIAN_POINT ( 'NONE',  ( 2.793185071074506684E-13, -7.225416114969383207E-15, 80.00000000000000000 ) ) ;
#150 = DIRECTION ( 'NONE',  ( 0.0000000000000000000, 1.000000000000000000, 0.0000000000000000000 ) ) ;
#151 = PLANE ( 'NONE',  #181 ) ;
#152 = APPROVAL_DATE_TIME ( #73, #199 ) ;
#153 = AXIS2_PLACEMENT_3D ( 'NONE', #39, #35, #117 ) ;
#154 = SECURITY_CLASSIFICATION_LEVEL ( 'unclassified' ) ;
#155 = CALENDAR_DATE ( 2021, 26, 11 ) ;
#156 = CIRCLE ( 'NONE', #87, 2.873999999999998778 ) ;
#157 = AXIS2_PLACEMENT_3D ( 'NONE', #88, #164, #1 ) ;
#158 = EDGE_CURVE ( 'NONE', #10, #10, #200, .T. ) ;
#159 = APPROVAL_PERSON_ORGANIZATION ( #98, #199, #55 ) ;
#160 = CALENDAR_DATE ( 2021, 26, 11 ) ;
#161 = CALENDAR_DATE ( 2021, 26, 11 ) ;
#162 = CYLINDRICAL_SURFACE ( 'NONE', #53, 2.873999999999995669 ) ;
#163 = ORGANIZATION ( 'UNSPECIFIED', 'UNSPECIFIED', '' ) ;
#164 = DIRECTION ( 'NONE',  ( -3.491481338843133355E-15, 9.031770143711729009E-17, -1.000000000000000000 ) ) ;
#165 = CARTESIAN_POINT ( 'NONE',  ( 4.885231259955591070E-14, 1.999999999999990452, 13.99185842870425311 ) ) ;
#166 = CARTESIAN_POINT ( 'NONE',  ( 4.356686483414279022E-14, -1.126988435213899322E-15, 12.47804602288901954 ) ) ;
#167 = CARTESIAN_POINT ( 'NONE',  ( 2.793185071074506684E-13, 1.599999999999987876, 80.00000000000000000 ) ) ;
#168 = CARTESIAN_POINT ( 'NONE',  ( 4.356686483414278391E-14, 2.873999999999998334, 12.47804602288901776 ) ) ;
#169 = APPROVAL ( #194, 'UNSPECIFIED' ) ;
#170 = FACE_OUTER_BOUND ( 'NONE', #80, .T. ) ;
#171 = EDGE_LOOP ( 'NONE', ( #56 ) ) ;
#172 = COORDINATED_UNIVERSAL_TIME_OFFSET ( 1, 0, .AHEAD. ) ;
#173 = EDGE_LOOP ( 'NONE', ( #175 ) ) ;
#174 = DATE_TIME_ROLE ( 'creation_date' ) ;
#175 = ORIENTED_EDGE ( 'NONE', *, *, #20, .T. ) ;
#176 = CC_DESIGN_DATE_AND_TIME_ASSIGNMENT ( #60, #174, ( #78 ) ) ;
#177 = SHAPE_DEFINITION_REPRESENTATION ( #106, #128 ) ;
#178 = APPLICATION_CONTEXT ( 'configuration controlled 3d designs of mechanical parts and assemblies' ) ;
#179 = FACE_OUTER_BOUND ( 'NONE', #96, .T. ) ;
#180 = DIRECTION ( 'NONE',  ( -1.886180513391214669E-30, 1.000000000000000000, -5.402235699808096552E-16 ) ) ;
#181 = AXIS2_PLACEMENT_3D ( 'NONE', #168, #95, #224 ) ;
#182 = LOCAL_TIME ( 11, 4, 14.00000000000000000, #15 ) ;
#183 = ORIENTED_EDGE ( 'NONE', *, *, #18, .F. ) ;
#184 = PRODUCT_RELATED_PRODUCT_CATEGORY ( 'detail', '', ( #204 ) ) ;
#185 = CARTESIAN_POINT ( 'NONE',  ( 2.779219145719134403E-13, -7.189289034394536528E-15, 79.60000000000000853 ) ) ;
#186 = ORIENTED_EDGE ( 'NONE', *, *, #158, .F. ) ;
#187 = AXIS2_PLACEMENT_3D ( 'NONE', #91, #92, #48 ) ;
#188 = APPROVAL_PERSON_ORGANIZATION ( #114, #169, #59 ) ;
#189 =( LENGTH_UNIT ( ) NAMED_UNIT ( * ) SI_UNIT ( .MILLI., .METRE. ) );
#190 =( NAMED_UNIT ( * ) PLANE_ANGLE_UNIT ( ) SI_UNIT ( $, .RADIAN. ) );
#191 = DIRECTION ( 'NONE',  ( 0.0000000000000000000, 1.000000000000000000, 0.0000000000000000000 ) ) ;
#192 = CC_DESIGN_APPROVAL ( #199, ( #46 ) ) ;
#193 = PLANE ( 'NONE',  #76 ) ;
#194 = APPROVAL_STATUS ( 'not_yet_approved' ) ;
#195 = APPROVAL_DATE_TIME ( #101, #207 ) ;
#196 = ADVANCED_FACE ( 'NONE', ( #90 ), #13, .T. ) ;
#197 = CALENDAR_DATE ( 2021, 26, 11 ) ;
#198 = DIRECTION ( 'NONE',  ( -3.491481338843133355E-15, 9.031770143711729009E-17, -1.000000000000000000 ) ) ;
#199 = APPROVAL ( #40, 'UNSPECIFIED' ) ;
#200 = CIRCLE ( 'NONE', #120, 1.999999999999995337 ) ;
#201 = CARTESIAN_POINT ( 'NONE',  ( 4.985288064627692970E-30, 7.713545782685605237E-31, 1.427843250704446430E-15 ) ) ;
#202 = DIRECTION ( 'NONE',  ( -3.491481338843133355E-15, -5.402235699808097538E-16, -1.000000000000000000 ) ) ;
#203 = DIRECTION ( 'NONE',  ( 0.0000000000000000000, 1.000000000000000000, 0.0000000000000000000 ) ) ;
#204 = PRODUCT ( '321478', '321478', '', ( #229 ) ) ;
#205 = CARTESIAN_POINT ( 'NONE',  ( 4.356686483414279022E-14, 2.873999999999998334, 12.47804602288901954 ) ) ;
#206 = CYLINDRICAL_SURFACE ( 'NONE', #187, 1.999999999999993561 ) ;
#207 = APPROVAL ( #116, 'UNSPECIFIED' ) ;
#208 = DIRECTION ( 'NONE',  ( 1.886180513391214669E-30, -1.000000000000000000, 5.402235699808097538E-16 ) ) ;
#209 = EDGE_LOOP ( 'NONE', ( #25 ) ) ;
#210 = PERSON_AND_ORGANIZATION_ROLE ( 'creator' ) ;
#211 = COORDINATED_UNIVERSAL_TIME_OFFSET ( 1, 0, .AHEAD. ) ;
#212 = CIRCLE ( 'NONE', #102, 2.643059892324149285 ) ;
#213 = ORIENTED_EDGE ( 'NONE', *, *, #20, .F. ) ;
#214 = DATE_TIME_ROLE ( 'classification_date' ) ;
#215 = DIRECTION ( 'NONE',  ( 0.0000000000000000000, 1.000000000000000000, 0.0000000000000000000 ) ) ;
#216 = DATE_AND_TIME ( #197, #62 ) ;
#217 = DIRECTION ( 'NONE',  ( -3.491481338843133355E-15, -5.402235699808097538E-16, -1.000000000000000000 ) ) ;
#218 = ADVANCED_FACE ( 'NONE', ( #14, #8 ), #206, .T. ) ;
#219 = CC_DESIGN_SECURITY_CLASSIFICATION ( #19, ( #46 ) ) ;
#220 = DIRECTION ( 'NONE',  ( -3.491481338843133355E-15, 9.031770143711729009E-17, -1.000000000000000000 ) ) ;
#221 = CLOSED_SHELL ( 'NONE', ( #196, #118, #45, #105 ) ) ;
#222 = FACE_BOUND ( 'NONE', #209, .T. ) ;
#223 = EDGE_CURVE ( 'NONE', #89, #89, #2, .T. ) ;
#224 = DIRECTION ( 'NONE',  ( 3.153425691349006731E-31, 1.000000000000000000, 9.031770143711729009E-17 ) ) ;
#225 = CARTESIAN_POINT ( 'NONE',  ( 4.356686483414278391E-14, 6.740934568869950866E-15, 12.47804602288901776 ) ) ;
#226 = MANIFOLD_SOLID_BREP ( 'Corps-Déplacer/Copier1[2]', #221 ) ;
#227 = CIRCLE ( 'NONE', #157, 2.873999999999999666 ) ;
#228 = ORIENTED_EDGE ( 'NONE', *, *, #94, .F. ) ;
#229 = MECHANICAL_CONTEXT ( 'NONE', #79, 'mechanical' ) ;
#230 = ADVANCED_FACE ( 'NONE', ( #222, #50 ), #69, .T. ) ;
#231 = ADVANCED_FACE ( 'NONE', ( #28 ), #151, .T. ) ;
#232 = ORIENTED_EDGE ( 'NONE', *, *, #11, .T. ) ;
#233 = VERTEX_POINT ( 'NONE', #205 ) ;
#234 = ADVANCED_FACE ( 'NONE', ( #170 ), #193, .T. ) ;
#235 = DIRECTION ( 'NONE',  ( 3.491481338843133355E-15, -9.031770143711729009E-17, 1.000000000000000000 ) ) ;
#236 = DIRECTION ( 'NONE',  ( -3.153425691349006731E-31, -1.000000000000000000, -9.031770143711729009E-17 ) ) ;
#237 = CC_DESIGN_PERSON_AND_ORGANIZATION_ASSIGNMENT ( #243, #119, ( #204 ) ) ;
#238 = CALENDAR_DATE ( 2021, 26, 11 ) ;
#239 = PERSON_AND_ORGANIZATION ( #29, #163 ) ;
#240 = EDGE_LOOP ( 'NONE', ( #111 ) ) ;
#241 = COORDINATED_UNIVERSAL_TIME_OFFSET ( 1, 0, .AHEAD. ) ;
#242 = CC_DESIGN_PERSON_AND_ORGANIZATION_ASSIGNMENT ( #136, #81, ( #19 ) ) ;
#243 = PERSON_AND_ORGANIZATION ( #29, #163 ) ;
ENDSEC;
END-ISO-10303-21;
