ISO-10303-21;
HEADER;
FILE_DESCRIPTION (( 'STEP AP203' ),
    '1' );
FILE_NAME ('321477.step',
    '2021-11-26T10:04:13',
    ( '' ),
    ( '' ),
    'SwSTEP 2.0',
    'SolidWorks 2019',
    '' );
FILE_SCHEMA (( 'CONFIG_CONTROL_DESIGN' ));
ENDSEC;

DATA;
#1 = FACE_OUTER_BOUND ( 'NONE', #2, .T. ) ;
#2 = EDGE_LOOP ( 'NONE', ( #223 ) ) ;
#3 = PERSON_AND_ORGANIZATION ( #33, #67 ) ;
#4 = DIRECTION ( 'NONE',  ( -3.491481338843133355E-15, 9.031770143711729009E-17, -1.000000000000000000 ) ) ;
#5 = PLANE ( 'NONE',  #38 ) ;
#6 = EDGE_LOOP ( 'NONE', ( #186 ) ) ;
#7 = DATE_AND_TIME ( #105, #59 ) ;
#8 = CC_DESIGN_PERSON_AND_ORGANIZATION_ASSIGNMENT ( #208, #31, ( #70 ) ) ;
#9 = EDGE_LOOP ( 'NONE', ( #100 ) ) ;
#10 = APPROVAL_STATUS ( 'not_yet_approved' ) ;
#11 = CLOSED_SHELL ( 'NONE', ( #20, #187, #233, #115 ) ) ;
#12 = SECURITY_CLASSIFICATION ( '', '', #194 ) ;
#13 = COORDINATED_UNIVERSAL_TIME_OFFSET ( 1, 0, .AHEAD. ) ;
#14 = PERSON_AND_ORGANIZATION ( #33, #67 ) ;
#15 = UNCERTAINTY_MEASURE_WITH_UNIT (LENGTH_MEASURE( 1.000000000000000082E-05 ), #130, 'distance_accuracy_value', 'NONE');
#16 = DIRECTION ( 'NONE',  ( -1.884279230603775927E-30, 1.000000000000000000, -5.396790209476280412E-16 ) ) ;
#17 = EDGE_LOOP ( 'NONE', ( #182 ) ) ;
#18 = ORIENTED_EDGE ( 'NONE', *, *, #198, .F. ) ;
#19 = FACE_OUTER_BOUND ( 'NONE', #156, .T. ) ;
#20 = ADVANCED_FACE ( 'NONE', ( #27 ), #140, .T. ) ;
#21 = AXIS2_PLACEMENT_3D ( 'NONE', #145, #51, #165 ) ;
#22 = EDGE_LOOP ( 'NONE', ( #171 ) ) ;
#23 = CC_DESIGN_DATE_AND_TIME_ASSIGNMENT ( #179, #48, ( #70 ) ) ;
#24 = FACE_BOUND ( 'NONE', #17, .T. ) ;
#25 = APPROVAL_DATE_TIME ( #82, #94 ) ;
#26 = CC_DESIGN_APPROVAL ( #55, ( #70 ) ) ;
#27 = FACE_OUTER_BOUND ( 'NONE', #228, .T. ) ;
#28 = ADVANCED_FACE ( 'NONE', ( #24, #49 ), #170, .T. ) ;
#29 = CARTESIAN_POINT ( 'NONE',  ( 4.970841464195226985E-30, 7.683440334730889427E-31, 1.423705579890701766E-15 ) ) ;
#30 = DIRECTION ( 'NONE',  ( 0.0000000000000000000, 1.000000000000000000, 0.0000000000000000000 ) ) ;
#31 = PERSON_AND_ORGANIZATION_ROLE ( 'creator' ) ;
#32 = CC_DESIGN_DATE_AND_TIME_ASSIGNMENT ( #143, #119, ( #12 ) ) ;
#33 = PERSON ( 'UNSPECIFIED', 'UNSPECIFIED', 'UNSPECIFIED', ('UNSPECIFIED'), ('UNSPECIFIED'), ('UNSPECIFIED') ) ;
#34 = PERSON_AND_ORGANIZATION ( #33, #67 ) ;
#35 = AXIS2_PLACEMENT_3D ( 'NONE', #144, #215, #195 ) ;
#36 = CC_DESIGN_PERSON_AND_ORGANIZATION_ASSIGNMENT ( #126, #230, ( #178 ) ) ;
#37 = DESIGN_CONTEXT ( 'detailed design', #113, 'design' ) ;
#38 = AXIS2_PLACEMENT_3D ( 'NONE', #154, #190, #104 ) ;
#39 = FACE_BOUND ( 'NONE', #22, .T. ) ;
#40 = FACE_OUTER_BOUND ( 'NONE', #9, .T. ) ;
#41 = AXIS2_PLACEMENT_3D ( 'NONE', #175, #85, #162 ) ;
#42 = EDGE_CURVE ( 'NONE', #89, #89, #212, .T. ) ;
#43 = CARTESIAN_POINT ( 'NONE',  ( 4.359710194950557158E-14, -1.127770609452459013E-15, 12.48670627692686530 ) ) ;
#44 = SHAPE_DEFINITION_REPRESENTATION ( #138, #137 ) ;
#45 = DIRECTION ( 'NONE',  ( 0.0000000000000000000, 1.000000000000000000, 0.0000000000000000000 ) ) ;
#46 = DIRECTION ( 'NONE',  ( -3.491481338843133355E-15, -5.396790209476280412E-16, -1.000000000000000000 ) ) ;
#47 = PERSON_AND_ORGANIZATION ( #33, #67 ) ;
#48 = DATE_TIME_ROLE ( 'creation_date' ) ;
#49 = FACE_OUTER_BOUND ( 'NONE', #64, .T. ) ;
#50 = APPROVAL_DATE_TIME ( #7, #167 ) ;
#51 = DIRECTION ( 'NONE',  ( -3.491481338843133355E-15, 9.031770143711729009E-17, -1.000000000000000000 ) ) ;
#52 = CARTESIAN_POINT ( 'NONE',  ( 4.885231259955590439E-14, 1.999999999999990452, 13.99185842870425134 ) ) ;
#53 = PRODUCT_RELATED_PRODUCT_CATEGORY ( 'detail', '', ( #86 ) ) ;
#54 = APPLICATION_PROTOCOL_DEFINITION ( 'international standard', 'config_control_design', 1994, #113 ) ;
#55 = APPROVAL ( #91, 'UNSPECIFIED' ) ;
#56 = APPROVAL_ROLE ( '' ) ;
#57 = AXIS2_PLACEMENT_3D ( 'NONE', #129, #109, #88 ) ;
#58 = DIRECTION ( 'NONE',  ( -3.153425691349006731E-31, -1.000000000000000000, -9.031770143711729009E-17 ) ) ;
#59 = LOCAL_TIME ( 11, 4, 13.00000000000000000, #160 ) ;
#60 = EDGE_LOOP ( 'NONE', ( #18 ) ) ;
#61 = AXIS2_PLACEMENT_3D ( 'NONE', #101, #213, #30 ) ;
#62 = APPROVAL_PERSON_ORGANIZATION ( #106, #94, #163 ) ;
#63 = CARTESIAN_POINT ( 'NONE',  ( 4.359710194950557789E-14, 6.738813418392492889E-15, 12.48670627692686708 ) ) ;
#64 = EDGE_LOOP ( 'NONE', ( #242 ) ) ;
#65 = COORDINATED_UNIVERSAL_TIME_OFFSET ( 1, 0, .AHEAD. ) ;
#66 = PLANE ( 'NONE',  #225 ) ;
#67 = ORGANIZATION ( 'UNSPECIFIED', 'UNSPECIFIED', '' ) ;
#68 = PERSON_AND_ORGANIZATION_ROLE ( 'classification_officer' ) ;
#69 = DIRECTION ( 'NONE',  ( -3.491481338843133355E-15, 9.031770143711729009E-17, -1.000000000000000000 ) ) ;
#70 = PRODUCT_DEFINITION ( 'UNKNOWN', '', #178, #37 ) ;
#71 = VERTEX_POINT ( 'NONE', #52 ) ;
#72 = EDGE_CURVE ( 'NONE', #238, #238, #196, .T. ) ;
#73 = ORIENTED_EDGE ( 'NONE', *, *, #153, .F. ) ;
#74 = AXIS2_PLACEMENT_3D ( 'NONE', #174, #206, #45 ) ;
#75 = CYLINDRICAL_SURFACE ( 'NONE', #155, 2.868999999999994888 ) ;
#76 = CLOSED_SHELL ( 'NONE', ( #135, #197, #241, #28, #222 ) ) ;
#77 = APPROVAL_PERSON_ORGANIZATION ( #34, #55, #56 ) ;
#78 = DIRECTION ( 'NONE',  ( 0.0000000000000000000, 1.000000000000000000, 0.0000000000000000000 ) ) ;
#79 = CIRCLE ( 'NONE', #74, 1.999999999999991784 ) ;
#80 = EDGE_LOOP ( 'NONE', ( #92 ) ) ;
#81 = DIRECTION ( 'NONE',  ( 0.0000000000000000000, 1.000000000000000000, 0.0000000000000000000 ) ) ;
#82 = DATE_AND_TIME ( #192, #139 ) ;
#83 = CIRCLE ( 'NONE', #35, 2.868999999999998884 ) ;
#84 = DIRECTION ( 'NONE',  ( -3.491481338843133355E-15, 9.031770143711729009E-17, -1.000000000000000000 ) ) ;
#85 = DIRECTION ( 'NONE',  ( 3.491481338843133355E-15, 5.396790209476280412E-16, 1.000000000000000000 ) ) ;
#86 = PRODUCT ( '321477', '321477', '', ( #219 ) ) ;
#87 = VERTEX_POINT ( 'NONE', #185 ) ;
#88 = DIRECTION ( 'NONE',  ( 1.000000000000000000, 0.0000000000000000000, 0.0000000000000000000 ) ) ;
#89 = VERTEX_POINT ( 'NONE', #217 ) ;
#90 = ORIENTED_EDGE ( 'NONE', *, *, #42, .F. ) ;
#91 = APPROVAL_STATUS ( 'not_yet_approved' ) ;
#92 = ORIENTED_EDGE ( 'NONE', *, *, #72, .F. ) ;
#93 = AXIS2_PLACEMENT_3D ( 'NONE', #43, #4, #81 ) ;
#94 = APPROVAL ( #10, 'UNSPECIFIED' ) ;
#95 = DIRECTION ( 'NONE',  ( -3.491481338843133355E-15, -5.396790209476280412E-16, -1.000000000000000000 ) ) ;
#96 = EDGE_CURVE ( 'NONE', #166, #166, #83, .T. ) ;
#97 = AXIS2_PLACEMENT_3D ( 'NONE', #63, #211, #125 ) ;
#98 = ORIENTED_EDGE ( 'NONE', *, *, #96, .T. ) ;
#99 = FACE_OUTER_BOUND ( 'NONE', #234, .T. ) ;
#100 = ORIENTED_EDGE ( 'NONE', *, *, #42, .T. ) ;
#101 = CARTESIAN_POINT ( 'NONE',  ( 4.359710194950557158E-14, -1.127770609452459013E-15, 12.48670627692686530 ) ) ;
#102 = CALENDAR_DATE ( 2021, 26, 11 ) ;
#103 = LOCAL_TIME ( 11, 4, 13.00000000000000000, #65 ) ;
#104 = DIRECTION ( 'NONE',  ( 3.153425691349006731E-31, 1.000000000000000000, 9.031770143711729009E-17 ) ) ;
#105 = CALENDAR_DATE ( 2021, 26, 11 ) ;
#106 = PERSON_AND_ORGANIZATION ( #33, #67 ) ;
#107 = DIRECTION ( 'NONE',  ( 0.0000000000000000000, 1.000000000000000000, 0.0000000000000000000 ) ) ;
#108 = CC_DESIGN_PERSON_AND_ORGANIZATION_ASSIGNMENT ( #176, #127, ( #178 ) ) ;
#109 = DIRECTION ( 'NONE',  ( 0.0000000000000000000, 0.0000000000000000000, 1.000000000000000000 ) ) ;
#110 = AXIS2_PLACEMENT_3D ( 'NONE', #157, #69, #123 ) ;
#111 = CYLINDRICAL_SURFACE ( 'NONE', #21, 1.999999999999993561 ) ;
#112 = CARTESIAN_POINT ( 'NONE',  ( 2.793185071074506684E-13, -7.225416114969383207E-15, 80.00000000000000000 ) ) ;
#113 = APPLICATION_CONTEXT ( 'configuration controlled 3d designs of mechanical parts and assemblies' ) ;
#114 = EDGE_CURVE ( 'NONE', #202, #202, #204, .T. ) ;
#115 = ADVANCED_FACE ( 'NONE', ( #158 ), #66, .T. ) ;
#116 = MANIFOLD_SOLID_BREP ( 'Corps-Déplacer/Copier1[1]', #76 ) ;
#117 = MANIFOLD_SOLID_BREP ( 'Corps-Déplacer/Copier1[2]', #11 ) ;
#118 = EDGE_LOOP ( 'NONE', ( #150 ) ) ;
#119 = DATE_TIME_ROLE ( 'classification_date' ) ;
#120 = FACE_OUTER_BOUND ( 'NONE', #80, .T. ) ;
#121 = CC_DESIGN_APPROVAL ( #94, ( #12 ) ) ;
#122 = DIRECTION ( 'NONE',  ( -3.491481338843133355E-15, -5.396790209476280412E-16, -1.000000000000000000 ) ) ;
#123 = DIRECTION ( 'NONE',  ( 0.0000000000000000000, 1.000000000000000000, 0.0000000000000000000 ) ) ;
#124 = APPROVAL_ROLE ( '' ) ;
#125 = DIRECTION ( 'NONE',  ( -2.148126811446208772E-30, 1.000000000000000000, -6.046439442233573466E-16 ) ) ;
#126 = PERSON_AND_ORGANIZATION ( #33, #67 ) ;
#127 = PERSON_AND_ORGANIZATION_ROLE ( 'design_supplier' ) ;
#128 = CARTESIAN_POINT ( 'NONE',  ( 4.359710194950557158E-14, 2.868999999999998440, 12.48670627692686530 ) ) ;
#129 = CARTESIAN_POINT ( 'NONE',  ( 0.0000000000000000000, 0.0000000000000000000, 0.0000000000000000000 ) ) ;
#130 =( LENGTH_UNIT ( ) NAMED_UNIT ( * ) SI_UNIT ( .MILLI., .METRE. ) );
#131 = ORIENTED_EDGE ( 'NONE', *, *, #159, .F. ) ;
#132 = CARTESIAN_POINT ( 'NONE',  ( 1.396592535537253342E-15, 2.868999999999998884, 0.3999999999999999667 ) ) ;
#133 = COORDINATED_UNIVERSAL_TIME_OFFSET ( 1, 0, .AHEAD. ) ;
#134 = DIRECTION ( 'NONE',  ( -1.884279230603775927E-30, 1.000000000000000000, -5.396790209476280412E-16 ) ) ;
#135 = ADVANCED_FACE ( 'NONE', ( #19 ), #168, .T. ) ;
#136 = CIRCLE ( 'NONE', #148, 1.599999999999994982 ) ;
#137 = ADVANCED_BREP_SHAPE_REPRESENTATION ( '321477', ( #116, #117, #57 ), #149 ) ;
#138 = PRODUCT_DEFINITION_SHAPE ( 'NONE', 'NONE',  #70 ) ;
#139 = LOCAL_TIME ( 11, 4, 13.00000000000000000, #177 ) ;
#140 = PLANE ( 'NONE',  #41 ) ;
#141 = APPROVAL_DATE_TIME ( #214, #55 ) ;
#142 = CARTESIAN_POINT ( 'NONE',  ( -2.485420732097613492E-30, 2.638059892324148947, -7.118527899453508828E-16 ) ) ;
#143 = DATE_AND_TIME ( #189, #161 ) ;
#144 = CARTESIAN_POINT ( 'NONE',  ( 1.396592535537258667E-15, 2.158716083790520399E-16, 0.4000000000000015210 ) ) ;
#145 = CARTESIAN_POINT ( 'NONE',  ( 0.0000000000000000000, 0.0000000000000000000, 0.0000000000000000000 ) ) ;
#146 = DIRECTION ( 'NONE',  ( -3.491481338843133355E-15, 9.031770143711729009E-17, -1.000000000000000000 ) ) ;
#147 = CC_DESIGN_PERSON_AND_ORGANIZATION_ASSIGNMENT ( #14, #201, ( #86 ) ) ;
#148 = AXIS2_PLACEMENT_3D ( 'NONE', #112, #146, #78 ) ;
#149 =( GEOMETRIC_REPRESENTATION_CONTEXT ( 3 ) GLOBAL_UNCERTAINTY_ASSIGNED_CONTEXT ( ( #15 ) ) GLOBAL_UNIT_ASSIGNED_CONTEXT ( ( #130, #183, #200 ) ) REPRESENTATION_CONTEXT ( 'NONE', 'WORKASPACE' ) );
#150 = ORIENTED_EDGE ( 'NONE', *, *, #159, .T. ) ;
#151 = CC_DESIGN_SECURITY_CLASSIFICATION ( #12, ( #178 ) ) ;
#152 = APPLICATION_CONTEXT ( 'configuration controlled 3d designs of mechanical parts and assemblies' ) ;
#153 = EDGE_CURVE ( 'NONE', #218, #218, #136, .T. ) ;
#154 = CARTESIAN_POINT ( 'NONE',  ( 4.359710194950557789E-14, 2.868999999999998440, 12.48670627692686708 ) ) ;
#155 = AXIS2_PLACEMENT_3D ( 'NONE', #210, #122, #134 ) ;
#156 = EDGE_LOOP ( 'NONE', ( #73 ) ) ;
#157 = CARTESIAN_POINT ( 'NONE',  ( 2.779219145719134403E-13, -7.189289034394536528E-15, 79.60000000000000853 ) ) ;
#158 = FACE_OUTER_BOUND ( 'NONE', #118, .T. ) ;
#159 = EDGE_CURVE ( 'NONE', #87, #87, #172, .T. ) ;
#160 = COORDINATED_UNIVERSAL_TIME_OFFSET ( 1, 0, .AHEAD. ) ;
#161 = LOCAL_TIME ( 11, 4, 13.00000000000000000, #13 ) ;
#162 = DIRECTION ( 'NONE',  ( 1.884279230603775927E-30, -1.000000000000000000, 5.396790209476280412E-16 ) ) ;
#163 = APPROVAL_ROLE ( '' ) ;
#164 = CONICAL_SURFACE ( 'NONE', #205, 2.638059892324148947, 0.5235987755982978165 ) ;
#165 = DIRECTION ( 'NONE',  ( 3.153425691349006731E-31, 1.000000000000000000, 9.031770143711729009E-17 ) ) ;
#166 = VERTEX_POINT ( 'NONE', #132 ) ;
#167 = APPROVAL ( #236, 'UNSPECIFIED' ) ;
#168 = PLANE ( 'NONE',  #173 ) ;
#169 = CARTESIAN_POINT ( 'NONE',  ( 2.793185071074506684E-13, 1.599999999999987876, 80.00000000000000000 ) ) ;
#170 = CONICAL_SURFACE ( 'NONE', #61, 2.868999999999999773, 0.5235987755982934866 ) ;
#171 = ORIENTED_EDGE ( 'NONE', *, *, #153, .T. ) ;
#172 = CIRCLE ( 'NONE', #184, 2.638059892324148947 ) ;
#173 = AXIS2_PLACEMENT_3D ( 'NONE', #240, #235, #58 ) ;
#174 = CARTESIAN_POINT ( 'NONE',  ( 4.885231259955590439E-14, -1.263712492114123682E-15, 13.99185842870425134 ) ) ;
#175 = CARTESIAN_POINT ( 'NONE',  ( 4.359710194950557789E-14, 6.738813418392492101E-15, 12.48670627692686708 ) ) ;
#176 = PERSON_AND_ORGANIZATION ( #33, #67 ) ;
#177 = COORDINATED_UNIVERSAL_TIME_OFFSET ( 1, 0, .AHEAD. ) ;
#178 = PRODUCT_DEFINITION_FORMATION_WITH_SPECIFIED_SOURCE ( 'ANY', '', #86, .NOT_KNOWN. ) ;
#179 = DATE_AND_TIME ( #102, #103 ) ;
#180 = CARTESIAN_POINT ( 'NONE',  ( 2.779219145719134403E-13, 1.999999999999988010, 79.60000000000000853 ) ) ;
#181 = CC_DESIGN_PERSON_AND_ORGANIZATION_ASSIGNMENT ( #3, #68, ( #12 ) ) ;
#182 = ORIENTED_EDGE ( 'NONE', *, *, #198, .T. ) ;
#183 =( NAMED_UNIT ( * ) PLANE_ANGLE_UNIT ( ) SI_UNIT ( $, .RADIAN. ) );
#184 = AXIS2_PLACEMENT_3D ( 'NONE', #221, #95, #243 ) ;
#185 = CARTESIAN_POINT ( 'NONE',  ( -6.842277657836020854E-46, 2.638059892324148947, 0.0000000000000000000 ) ) ;
#186 = ORIENTED_EDGE ( 'NONE', *, *, #72, .T. ) ;
#187 = ADVANCED_FACE ( 'NONE', ( #40, #99 ), #75, .T. ) ;
#188 = CONICAL_SURFACE ( 'NONE', #224, 1.999999999999995337, 0.7853981633974516097 ) ;
#189 = CALENDAR_DATE ( 2021, 26, 11 ) ;
#190 = DIRECTION ( 'NONE',  ( -3.491481338843133355E-15, 9.031770143711729009E-17, -1.000000000000000000 ) ) ;
#191 = CC_DESIGN_APPROVAL ( #167, ( #178 ) ) ;
#192 = CALENDAR_DATE ( 2021, 26, 11 ) ;
#193 = FACE_BOUND ( 'NONE', #220, .T. ) ;
#194 = SECURITY_CLASSIFICATION_LEVEL ( 'unclassified' ) ;
#195 = DIRECTION ( 'NONE',  ( -1.879610960015427771E-30, 1.000000000000000000, -5.479585744524161409E-16 ) ) ;
#196 = CIRCLE ( 'NONE', #110, 1.999999999999995337 ) ;
#197 = ADVANCED_FACE ( 'NONE', ( #39, #120 ), #188, .T. ) ;
#198 = EDGE_CURVE ( 'NONE', #71, #71, #79, .T. ) ;
#199 = DIRECTION ( 'NONE',  ( 1.884279230603776277E-30, -1.000000000000000000, 5.396790209476280412E-16 ) ) ;
#200 =( NAMED_UNIT ( * ) SI_UNIT ( $, .STERADIAN. ) SOLID_ANGLE_UNIT ( ) );
#201 = PERSON_AND_ORGANIZATION_ROLE ( 'design_owner' ) ;
#202 = VERTEX_POINT ( 'NONE', #128 ) ;
#203 = LOCAL_TIME ( 11, 4, 13.00000000000000000, #133 ) ;
#204 = CIRCLE ( 'NONE', #93, 2.868999999999999773 ) ;
#205 = AXIS2_PLACEMENT_3D ( 'NONE', #29, #231, #199 ) ;
#206 = DIRECTION ( 'NONE',  ( -3.491481338843133355E-15, 9.031770143711729009E-17, -1.000000000000000000 ) ) ;
#207 = ORIENTED_EDGE ( 'NONE', *, *, #96, .F. ) ;
#208 = PERSON_AND_ORGANIZATION ( #33, #67 ) ;
#209 = CARTESIAN_POINT ( 'NONE',  ( 2.779219145719134403E-13, -7.189289034394536528E-15, 79.60000000000000853 ) ) ;
#210 = CARTESIAN_POINT ( 'NONE',  ( 0.0000000000000000000, 0.0000000000000000000, 0.0000000000000000000 ) ) ;
#211 = DIRECTION ( 'NONE',  ( -3.491481338843133355E-15, -5.396790209476280412E-16, -1.000000000000000000 ) ) ;
#212 = CIRCLE ( 'NONE', #97, 2.868999999999991335 ) ;
#213 = DIRECTION ( 'NONE',  ( -3.491481338843133355E-15, 9.031770143711729009E-17, -1.000000000000000000 ) ) ;
#214 = DATE_AND_TIME ( #227, #203 ) ;
#215 = DIRECTION ( 'NONE',  ( -3.491481338843133355E-15, -5.396790209476280412E-16, -1.000000000000000000 ) ) ;
#216 = FACE_OUTER_BOUND ( 'NONE', #60, .T. ) ;
#217 = CARTESIAN_POINT ( 'NONE',  ( 4.359710194950557158E-14, 2.868999999999998440, 12.48670627692686530 ) ) ;
#218 = VERTEX_POINT ( 'NONE', #169 ) ;
#219 = MECHANICAL_CONTEXT ( 'NONE', #152, 'mechanical' ) ;
#220 = EDGE_LOOP ( 'NONE', ( #131 ) ) ;
#221 = CARTESIAN_POINT ( 'NONE',  ( 4.970841464195226985E-30, 7.683440334730889427E-31, 1.423705579890701766E-15 ) ) ;
#222 = ADVANCED_FACE ( 'NONE', ( #1 ), #5, .T. ) ;
#223 = ORIENTED_EDGE ( 'NONE', *, *, #114, .T. ) ;
#224 = AXIS2_PLACEMENT_3D ( 'NONE', #209, #84, #107 ) ;
#225 = AXIS2_PLACEMENT_3D ( 'NONE', #142, #46, #16 ) ;
#226 = EDGE_LOOP ( 'NONE', ( #98 ) ) ;
#227 = CALENDAR_DATE ( 2021, 26, 11 ) ;
#228 = EDGE_LOOP ( 'NONE', ( #90 ) ) ;
#229 = FACE_OUTER_BOUND ( 'NONE', #226, .T. ) ;
#230 = PERSON_AND_ORGANIZATION_ROLE ( 'creator' ) ;
#231 = DIRECTION ( 'NONE',  ( 3.491481338843133355E-15, 5.396790209476280412E-16, 1.000000000000000000 ) ) ;
#232 = APPROVAL_PERSON_ORGANIZATION ( #47, #167, #124 ) ;
#233 = ADVANCED_FACE ( 'NONE', ( #229, #193 ), #164, .T. ) ;
#234 = EDGE_LOOP ( 'NONE', ( #207 ) ) ;
#235 = DIRECTION ( 'NONE',  ( 3.491481338843133355E-15, -9.031770143711729009E-17, 1.000000000000000000 ) ) ;
#236 = APPROVAL_STATUS ( 'not_yet_approved' ) ;
#237 = APPLICATION_PROTOCOL_DEFINITION ( 'international standard', 'config_control_design', 1994, #152 ) ;
#238 = VERTEX_POINT ( 'NONE', #180 ) ;
#239 = FACE_OUTER_BOUND ( 'NONE', #6, .T. ) ;
#240 = CARTESIAN_POINT ( 'NONE',  ( 2.793185071074506684E-13, -7.225416114969383207E-15, 80.00000000000000000 ) ) ;
#241 = ADVANCED_FACE ( 'NONE', ( #239, #216 ), #111, .T. ) ;
#242 = ORIENTED_EDGE ( 'NONE', *, *, #114, .F. ) ;
#243 = DIRECTION ( 'NONE',  ( -1.884279230603775927E-30, 1.000000000000000000, -5.396790209476280412E-16 ) ) ;
ENDSEC;
END-ISO-10303-21;
