ISO-10303-21;
HEADER;
FILE_DESCRIPTION (( 'STEP AP203' ),
    '1' );
FILE_NAME ('321476.step',
    '2021-11-26T10:04:12',
    ( '' ),
    ( '' ),
    'SwSTEP 2.0',
    'SolidWorks 2019',
    '' );
FILE_SCHEMA (( 'CONFIG_CONTROL_DESIGN' ));
ENDSEC;

DATA;
#1 = FACE_OUTER_BOUND ( 'NONE', #104, .T. ) ;
#2 = DIRECTION ( 'NONE',  ( 3.491481338843133355E-15, 5.391352267435197561E-16, 1.000000000000000000 ) ) ;
#3 = CC_DESIGN_PERSON_AND_ORGANIZATION_ASSIGNMENT ( #203, #124, ( #182 ) ) ;
#4 = CARTESIAN_POINT ( 'NONE',  ( 2.779219145719134403E-13, -7.189289034394536528E-15, 79.60000000000000853 ) ) ;
#5 = VERTEX_POINT ( 'NONE', #96 ) ;
#6 = CARTESIAN_POINT ( 'NONE',  ( 4.362733906486834031E-14, 2.863999999999998103, 12.49536653096470928 ) ) ;
#7 =( GEOMETRIC_REPRESENTATION_CONTEXT ( 3 ) GLOBAL_UNCERTAINTY_ASSIGNED_CONTEXT ( ( #31 ) ) GLOBAL_UNIT_ASSIGNED_CONTEXT ( ( #136, #223, #193 ) ) REPRESENTATION_CONTEXT ( 'NONE', 'WORKASPACE' ) );
#8 = ORIENTED_EDGE ( 'NONE', *, *, #70, .T. ) ;
#9 = EDGE_LOOP ( 'NONE', ( #137 ) ) ;
#10 = ADVANCED_FACE ( 'NONE', ( #89 ), #125, .T. ) ;
#11 = ORIENTED_EDGE ( 'NONE', *, *, #163, .T. ) ;
#12 = AXIS2_PLACEMENT_3D ( 'NONE', #174, #154, #15 ) ;
#13 = AXIS2_PLACEMENT_3D ( 'NONE', #4, #101, #79 ) ;
#14 = DIRECTION ( 'NONE',  ( -3.491481338843133355E-15, -5.391352267435197561E-16, -1.000000000000000000 ) ) ;
#15 = DIRECTION ( 'NONE',  ( 0.0000000000000000000, 1.000000000000000000, 0.0000000000000000000 ) ) ;
#16 = DATE_AND_TIME ( #159, #238 ) ;
#17 = COORDINATED_UNIVERSAL_TIME_OFFSET ( 1, 0, .AHEAD. ) ;
#18 = CARTESIAN_POINT ( 'NONE',  ( 4.362733906486834031E-14, 2.863999999999998103, 12.49536653096471106 ) ) ;
#19 = ADVANCED_FACE ( 'NONE', ( #204, #92 ), #40, .T. ) ;
#20 = FACE_OUTER_BOUND ( 'NONE', #141, .T. ) ;
#21 = CIRCLE ( 'NONE', #12, 1.999999999999991784 ) ;
#22 = FACE_OUTER_BOUND ( 'NONE', #176, .T. ) ;
#23 = FACE_BOUND ( 'NONE', #82, .T. ) ;
#24 = CLOSED_SHELL ( 'NONE', ( #198, #227, #36, #19, #10 ) ) ;
#25 = APPLICATION_PROTOCOL_DEFINITION ( 'international standard', 'config_control_design', 1994, #229 ) ;
#26 = VERTEX_POINT ( 'NONE', #170 ) ;
#27 = DIRECTION ( 'NONE',  ( 0.0000000000000000000, 1.000000000000000000, 0.0000000000000000000 ) ) ;
#28 = DIRECTION ( 'NONE',  ( -1.882892403730539368E-30, 1.000000000000000000, -5.299870954887246631E-16 ) ) ;
#29 = ORIENTED_EDGE ( 'NONE', *, *, #240, .F. ) ;
#30 = ORIENTED_EDGE ( 'NONE', *, *, #163, .F. ) ;
#31 = UNCERTAINTY_MEASURE_WITH_UNIT (LENGTH_MEASURE( 1.000000000000000082E-05 ), #136, 'distance_accuracy_value', 'NONE');
#32 = ORIENTED_EDGE ( 'NONE', *, *, #119, .T. ) ;
#33 = ORGANIZATION ( 'UNSPECIFIED', 'UNSPECIFIED', '' ) ;
#34 = FACE_OUTER_BOUND ( 'NONE', #122, .T. ) ;
#35 = AXIS2_PLACEMENT_3D ( 'NONE', #38, #235, #110 ) ;
#36 = ADVANCED_FACE ( 'NONE', ( #208, #117 ), #230, .T. ) ;
#37 = PERSON_AND_ORGANIZATION ( #232, #33 ) ;
#38 = CARTESIAN_POINT ( 'NONE',  ( 4.362733906486834031E-14, 6.736692267915047534E-15, 12.49536653096471106 ) ) ;
#39 = PERSON_AND_ORGANIZATION ( #232, #33 ) ;
#40 = CONICAL_SURFACE ( 'NONE', #165, 2.863999999999999435, 0.5235987755982930425 ) ;
#41 = DIRECTION ( 'NONE',  ( 3.491481338843133355E-15, -9.031770143711729009E-17, 1.000000000000000000 ) ) ;
#42 = MECHANICAL_CONTEXT ( 'NONE', #229, 'mechanical' ) ;
#43 = DIRECTION ( 'NONE',  ( -3.491481338843133355E-15, -5.391352267435197561E-16, -1.000000000000000000 ) ) ;
#44 = AXIS2_PLACEMENT_3D ( 'NONE', #242, #189, #98 ) ;
#45 = DIRECTION ( 'NONE',  ( 1.882380583287960803E-30, -1.000000000000000000, 5.391352267435197561E-16 ) ) ;
#46 = EDGE_CURVE ( 'NONE', #188, #188, #231, .T. ) ;
#47 = CARTESIAN_POINT ( 'NONE',  ( 1.396592535537258470E-15, 2.156540906974086962E-16, 0.4000000000000014655 ) ) ;
#48 = ADVANCED_BREP_SHAPE_REPRESENTATION ( '321476', ( #224, #220, #44 ), #7 ) ;
#49 = DIRECTION ( 'NONE',  ( -3.491481338843133355E-15, -5.391352267435197561E-16, -1.000000000000000000 ) ) ;
#50 = ORIENTED_EDGE ( 'NONE', *, *, #70, .F. ) ;
#51 = CONICAL_SURFACE ( 'NONE', #177, 2.633059892324147722, 0.5235987755982978165 ) ;
#52 = DATE_AND_TIME ( #108, #83 ) ;
#53 = PERSON_AND_ORGANIZATION_ROLE ( 'creator' ) ;
#54 = APPROVAL_STATUS ( 'not_yet_approved' ) ;
#55 = EDGE_CURVE ( 'NONE', #131, #131, #21, .T. ) ;
#56 = APPROVAL_PERSON_ORGANIZATION ( #215, #85, #243 ) ;
#57 = APPROVAL_ROLE ( '' ) ;
#58 = DIRECTION ( 'NONE',  ( -3.491481338843133355E-15, 9.031770143711729009E-17, -1.000000000000000000 ) ) ;
#59 = CLOSED_SHELL ( 'NONE', ( #221, #140, #160, #114 ) ) ;
#60 = VERTEX_POINT ( 'NONE', #80 ) ;
#61 = AXIS2_PLACEMENT_3D ( 'NONE', #94, #180, #199 ) ;
#62 = DIRECTION ( 'NONE',  ( 3.491481338843133355E-15, 5.391352267435197561E-16, 1.000000000000000000 ) ) ;
#63 = ORIENTED_EDGE ( 'NONE', *, *, #46, .F. ) ;
#64 = CIRCLE ( 'NONE', #130, 1.599999999999994982 ) ;
#65 = ORIENTED_EDGE ( 'NONE', *, *, #119, .F. ) ;
#66 = CARTESIAN_POINT ( 'NONE',  ( 0.0000000000000000000, 0.0000000000000000000, 0.0000000000000000000 ) ) ;
#67 = EDGE_LOOP ( 'NONE', ( #8 ) ) ;
#68 = DIRECTION ( 'NONE',  ( -1.882380583287960803E-30, 1.000000000000000000, -5.391352267435197561E-16 ) ) ;
#69 = COORDINATED_UNIVERSAL_TIME_OFFSET ( 1, 0, .AHEAD. ) ;
#70 = EDGE_CURVE ( 'NONE', #26, #26, #64, .T. ) ;
#71 = CALENDAR_DATE ( 2021, 26, 11 ) ;
#72 = PERSON_AND_ORGANIZATION ( #232, #33 ) ;
#73 = LOCAL_TIME ( 11, 4, 12.00000000000000000, #186 ) ;
#74 = DESIGN_CONTEXT ( 'detailed design', #109, 'design' ) ;
#75 = DATE_AND_TIME ( #129, #210 ) ;
#76 = CARTESIAN_POINT ( 'NONE',  ( 2.779219145719134403E-13, 1.999999999999988010, 79.60000000000000853 ) ) ;
#77 = CC_DESIGN_APPROVAL ( #183, ( #102 ) ) ;
#78 = DIRECTION ( 'NONE',  ( -3.491481338843133355E-15, 9.031770143711729009E-17, -1.000000000000000000 ) ) ;
#79 = DIRECTION ( 'NONE',  ( 0.0000000000000000000, 1.000000000000000000, 0.0000000000000000000 ) ) ;
#80 = CARTESIAN_POINT ( 'NONE',  ( 4.362733906486834031E-14, 2.863999999999998103, 12.49536653096470928 ) ) ;
#81 = FACE_OUTER_BOUND ( 'NONE', #120, .T. ) ;
#82 = EDGE_LOOP ( 'NONE', ( #65 ) ) ;
#83 = LOCAL_TIME ( 11, 4, 12.00000000000000000, #69 ) ;
#84 = EDGE_LOOP ( 'NONE', ( #30 ) ) ;
#85 = APPROVAL ( #111, 'UNSPECIFIED' ) ;
#86 = CONICAL_SURFACE ( 'NONE', #13, 1.999999999999995337, 0.7853981633974516097 ) ;
#87 = CARTESIAN_POINT ( 'NONE',  ( 0.0000000000000000000, 0.0000000000000000000, 0.0000000000000000000 ) ) ;
#88 = SHAPE_DEFINITION_REPRESENTATION ( #173, #48 ) ;
#89 = FACE_OUTER_BOUND ( 'NONE', #139, .T. ) ;
#90 = COORDINATED_UNIVERSAL_TIME_OFFSET ( 1, 0, .AHEAD. ) ;
#91 = DATE_AND_TIME ( #105, #153 ) ;
#92 = FACE_OUTER_BOUND ( 'NONE', #84, .T. ) ;
#93 = AXIS2_PLACEMENT_3D ( 'NONE', #134, #113, #27 ) ;
#94 = CARTESIAN_POINT ( 'NONE',  ( -2.478210407972631968E-30, 2.633059892324147722, -7.097876710387235920E-16 ) ) ;
#95 = CARTESIAN_POINT ( 'NONE',  ( 2.793185071074506684E-13, -7.225416114969383207E-15, 80.00000000000000000 ) ) ;
#96 = CARTESIAN_POINT ( 'NONE',  ( -6.842277657836020854E-46, 2.633059892324147722, 0.0000000000000000000 ) ) ;
#97 = CARTESIAN_POINT ( 'NONE',  ( 4.362733906486834031E-14, -1.128552783691018703E-15, 12.49536653096470928 ) ) ;
#98 = DIRECTION ( 'NONE',  ( 1.000000000000000000, 0.0000000000000000000, 0.0000000000000000000 ) ) ;
#99 = AXIS2_PLACEMENT_3D ( 'NONE', #87, #43, #192 ) ;
#100 = APPROVAL_ROLE ( '' ) ;
#101 = DIRECTION ( 'NONE',  ( -3.491481338843133355E-15, 9.031770143711729009E-17, -1.000000000000000000 ) ) ;
#102 = SECURITY_CLASSIFICATION ( '', '', #206 ) ;
#103 = ORIENTED_EDGE ( 'NONE', *, *, #46, .T. ) ;
#104 = EDGE_LOOP ( 'NONE', ( #103 ) ) ;
#105 = CALENDAR_DATE ( 2021, 26, 11 ) ;
#106 = EDGE_LOOP ( 'NONE', ( #196 ) ) ;
#107 = APPROVAL_DATE_TIME ( #75, #85 ) ;
#108 = CALENDAR_DATE ( 2021, 26, 11 ) ;
#109 = APPLICATION_CONTEXT ( 'configuration controlled 3d designs of mechanical parts and assemblies' ) ;
#110 = DIRECTION ( 'NONE',  ( -2.151877032834907289E-30, 1.000000000000000000, -6.056995377014010659E-16 ) ) ;
#111 = APPROVAL_STATUS ( 'not_yet_approved' ) ;
#112 = CARTESIAN_POINT ( 'NONE',  ( 4.956420815945263936E-30, 7.653430739304340522E-31, 1.419575342077447184E-15 ) ) ;
#113 = DIRECTION ( 'NONE',  ( -3.491481338843133355E-15, 9.031770143711729009E-17, -1.000000000000000000 ) ) ;
#114 = ADVANCED_FACE ( 'NONE', ( #241 ), #143, .T. ) ;
#115 = DIRECTION ( 'NONE',  ( 0.0000000000000000000, 1.000000000000000000, 0.0000000000000000000 ) ) ;
#116 = AXIS2_PLACEMENT_3D ( 'NONE', #97, #58, #115 ) ;
#117 = FACE_OUTER_BOUND ( 'NONE', #233, .T. ) ;
#118 = PLANE ( 'NONE',  #126 ) ;
#119 = EDGE_CURVE ( 'NONE', #5, #5, #234, .T. ) ;
#120 = EDGE_LOOP ( 'NONE', ( #29 ) ) ;
#121 = PERSON_AND_ORGANIZATION_ROLE ( 'design_owner' ) ;
#122 = EDGE_LOOP ( 'NONE', ( #142 ) ) ;
#123 = PRODUCT_DEFINITION ( 'UNKNOWN', '', #182, #74 ) ;
#124 = PERSON_AND_ORGANIZATION_ROLE ( 'design_supplier' ) ;
#125 = PLANE ( 'NONE',  #195 ) ;
#126 = AXIS2_PLACEMENT_3D ( 'NONE', #167, #62, #45 ) ;
#127 = DIRECTION ( 'NONE',  ( -3.491481338843133355E-15, 9.031770143711729009E-17, -1.000000000000000000 ) ) ;
#128 = EDGE_CURVE ( 'NONE', #164, #164, #135, .T. ) ;
#129 = CALENDAR_DATE ( 2021, 26, 11 ) ;
#130 = AXIS2_PLACEMENT_3D ( 'NONE', #207, #127, #158 ) ;
#131 = VERTEX_POINT ( 'NONE', #226 ) ;
#132 = CC_DESIGN_PERSON_AND_ORGANIZATION_ASSIGNMENT ( #37, #144, ( #182 ) ) ;
#133 = PLANE ( 'NONE',  #191 ) ;
#134 = CARTESIAN_POINT ( 'NONE',  ( 2.779219145719134403E-13, -7.189289034394536528E-15, 79.60000000000000853 ) ) ;
#135 = CIRCLE ( 'NONE', #35, 2.863999999999990997 ) ;
#136 =( LENGTH_UNIT ( ) NAMED_UNIT ( * ) SI_UNIT ( .MILLI., .METRE. ) );
#137 = ORIENTED_EDGE ( 'NONE', *, *, #240, .T. ) ;
#138 = APPROVAL_PERSON_ORGANIZATION ( #218, #183, #57 ) ;
#139 = EDGE_LOOP ( 'NONE', ( #11 ) ) ;
#140 = ADVANCED_FACE ( 'NONE', ( #34, #20 ), #185, .T. ) ;
#141 = EDGE_LOOP ( 'NONE', ( #63 ) ) ;
#142 = ORIENTED_EDGE ( 'NONE', *, *, #128, .T. ) ;
#143 = PLANE ( 'NONE',  #61 ) ;
#144 = PERSON_AND_ORGANIZATION_ROLE ( 'creator' ) ;
#145 = DIRECTION ( 'NONE',  ( 3.153425691349006731E-31, 1.000000000000000000, 9.031770143711729009E-17 ) ) ;
#146 = AXIS2_PLACEMENT_3D ( 'NONE', #47, #49, #28 ) ;
#147 = DIRECTION ( 'NONE',  ( 0.0000000000000000000, 1.000000000000000000, 0.0000000000000000000 ) ) ;
#148 = VERTEX_POINT ( 'NONE', #76 ) ;
#149 = PRODUCT ( '321476', '321476', '', ( #42 ) ) ;
#150 = DIRECTION ( 'NONE',  ( 1.882380583287961153E-30, -1.000000000000000000, 5.391352267435197561E-16 ) ) ;
#151 = AXIS2_PLACEMENT_3D ( 'NONE', #66, #211, #194 ) ;
#152 = EDGE_LOOP ( 'NONE', ( #50 ) ) ;
#153 = LOCAL_TIME ( 11, 4, 12.00000000000000000, #168 ) ;
#154 = DIRECTION ( 'NONE',  ( -3.491481338843133355E-15, 9.031770143711729009E-17, -1.000000000000000000 ) ) ;
#155 = ORIENTED_EDGE ( 'NONE', *, *, #55, .F. ) ;
#156 = APPROVAL_PERSON_ORGANIZATION ( #72, #169, #100 ) ;
#157 = APPROVAL_STATUS ( 'not_yet_approved' ) ;
#158 = DIRECTION ( 'NONE',  ( 0.0000000000000000000, 1.000000000000000000, 0.0000000000000000000 ) ) ;
#159 = CALENDAR_DATE ( 2021, 26, 11 ) ;
#160 = ADVANCED_FACE ( 'NONE', ( #1, #23 ), #51, .T. ) ;
#161 = CC_DESIGN_SECURITY_CLASSIFICATION ( #102, ( #182 ) ) ;
#162 = DIRECTION ( 'NONE',  ( -3.153425691349006731E-31, -1.000000000000000000, -9.031770143711729009E-17 ) ) ;
#163 = EDGE_CURVE ( 'NONE', #60, #60, #187, .T. ) ;
#164 = VERTEX_POINT ( 'NONE', #6 ) ;
#165 = AXIS2_PLACEMENT_3D ( 'NONE', #239, #78, #147 ) ;
#166 = FACE_BOUND ( 'NONE', #67, .T. ) ;
#167 = CARTESIAN_POINT ( 'NONE',  ( 4.362733906486834031E-14, 6.736692267915047534E-15, 12.49536653096471106 ) ) ;
#168 = COORDINATED_UNIVERSAL_TIME_OFFSET ( 1, 0, .AHEAD. ) ;
#169 = APPROVAL ( #54, 'UNSPECIFIED' ) ;
#170 = CARTESIAN_POINT ( 'NONE',  ( 2.793185071074506684E-13, 1.599999999999987876, 80.00000000000000000 ) ) ;
#171 = AXIS2_PLACEMENT_3D ( 'NONE', #205, #14, #68 ) ;
#172 = CC_DESIGN_DATE_AND_TIME_ASSIGNMENT ( #184, #200, ( #123 ) ) ;
#173 = PRODUCT_DEFINITION_SHAPE ( 'NONE', 'NONE',  #123 ) ;
#174 = CARTESIAN_POINT ( 'NONE',  ( 4.885231259955590439E-14, -1.263712492114123682E-15, 13.99185842870425134 ) ) ;
#175 = PERSON_AND_ORGANIZATION ( #232, #33 ) ;
#176 = EDGE_LOOP ( 'NONE', ( #179 ) ) ;
#177 = AXIS2_PLACEMENT_3D ( 'NONE', #112, #2, #150 ) ;
#178 = APPLICATION_PROTOCOL_DEFINITION ( 'international standard', 'config_control_design', 1994, #109 ) ;
#179 = ORIENTED_EDGE ( 'NONE', *, *, #128, .F. ) ;
#180 = DIRECTION ( 'NONE',  ( -3.491481338843133355E-15, -5.391352267435197561E-16, -1.000000000000000000 ) ) ;
#181 = PERSON_AND_ORGANIZATION ( #232, #33 ) ;
#182 = PRODUCT_DEFINITION_FORMATION_WITH_SPECIFIED_SOURCE ( 'ANY', '', #149, .NOT_KNOWN. ) ;
#183 = APPROVAL ( #157, 'UNSPECIFIED' ) ;
#184 = DATE_AND_TIME ( #71, #73 ) ;
#185 = CYLINDRICAL_SURFACE ( 'NONE', #99, 2.863999999999994106 ) ;
#186 = COORDINATED_UNIVERSAL_TIME_OFFSET ( 1, 0, .AHEAD. ) ;
#187 = CIRCLE ( 'NONE', #116, 2.863999999999999435 ) ;
#188 = VERTEX_POINT ( 'NONE', #190 ) ;
#189 = DIRECTION ( 'NONE',  ( 0.0000000000000000000, 0.0000000000000000000, 1.000000000000000000 ) ) ;
#190 = CARTESIAN_POINT ( 'NONE',  ( 1.396592535537253145E-15, 2.863999999999997659, 0.3999999999999999667 ) ) ;
#191 = AXIS2_PLACEMENT_3D ( 'NONE', #95, #41, #162 ) ;
#192 = DIRECTION ( 'NONE',  ( -1.882380583287960803E-30, 1.000000000000000000, -5.391352267435197561E-16 ) ) ;
#193 =( NAMED_UNIT ( * ) SI_UNIT ( $, .STERADIAN. ) SOLID_ANGLE_UNIT ( ) );
#194 = DIRECTION ( 'NONE',  ( 3.153425691349006731E-31, 1.000000000000000000, 9.031770143711729009E-17 ) ) ;
#195 = AXIS2_PLACEMENT_3D ( 'NONE', #18, #236, #145 ) ;
#196 = ORIENTED_EDGE ( 'NONE', *, *, #55, .T. ) ;
#197 = PRODUCT_RELATED_PRODUCT_CATEGORY ( 'detail', '', ( #149 ) ) ;
#198 = ADVANCED_FACE ( 'NONE', ( #209 ), #133, .T. ) ;
#199 = DIRECTION ( 'NONE',  ( -1.882380583287960803E-30, 1.000000000000000000, -5.391352267435197561E-16 ) ) ;
#200 = DATE_TIME_ROLE ( 'creation_date' ) ;
#201 = CC_DESIGN_PERSON_AND_ORGANIZATION_ASSIGNMENT ( #181, #219, ( #102 ) ) ;
#202 = CC_DESIGN_APPROVAL ( #169, ( #123 ) ) ;
#203 = PERSON_AND_ORGANIZATION ( #232, #33 ) ;
#204 = FACE_BOUND ( 'NONE', #106, .T. ) ;
#205 = CARTESIAN_POINT ( 'NONE',  ( 4.956420815945263936E-30, 7.653430739304340522E-31, 1.419575342077447184E-15 ) ) ;
#206 = SECURITY_CLASSIFICATION_LEVEL ( 'unclassified' ) ;
#207 = CARTESIAN_POINT ( 'NONE',  ( 2.793185071074506684E-13, -7.225416114969383207E-15, 80.00000000000000000 ) ) ;
#208 = FACE_OUTER_BOUND ( 'NONE', #9, .T. ) ;
#209 = FACE_OUTER_BOUND ( 'NONE', #152, .T. ) ;
#210 = LOCAL_TIME ( 11, 4, 12.00000000000000000, #17 ) ;
#211 = DIRECTION ( 'NONE',  ( -3.491481338843133355E-15, 9.031770143711729009E-17, -1.000000000000000000 ) ) ;
#212 = CC_DESIGN_PERSON_AND_ORGANIZATION_ASSIGNMENT ( #175, #121, ( #149 ) ) ;
#213 = CC_DESIGN_APPROVAL ( #85, ( #182 ) ) ;
#214 = DATE_TIME_ROLE ( 'classification_date' ) ;
#215 = PERSON_AND_ORGANIZATION ( #232, #33 ) ;
#216 = CC_DESIGN_PERSON_AND_ORGANIZATION_ASSIGNMENT ( #39, #53, ( #123 ) ) ;
#217 = APPROVAL_DATE_TIME ( #91, #169 ) ;
#218 = PERSON_AND_ORGANIZATION ( #232, #33 ) ;
#219 = PERSON_AND_ORGANIZATION_ROLE ( 'classification_officer' ) ;
#220 = MANIFOLD_SOLID_BREP ( 'Corps-Déplacer/Copier1[2]', #59 ) ;
#221 = ADVANCED_FACE ( 'NONE', ( #22 ), #118, .T. ) ;
#222 = CIRCLE ( 'NONE', #93, 1.999999999999995337 ) ;
#223 =( NAMED_UNIT ( * ) PLANE_ANGLE_UNIT ( ) SI_UNIT ( $, .RADIAN. ) );
#224 = MANIFOLD_SOLID_BREP ( 'Corps-Déplacer/Copier1[1]', #24 ) ;
#225 = CC_DESIGN_DATE_AND_TIME_ASSIGNMENT ( #16, #214, ( #102 ) ) ;
#226 = CARTESIAN_POINT ( 'NONE',  ( 4.885231259955590439E-14, 1.999999999999990452, 13.99185842870425134 ) ) ;
#227 = ADVANCED_FACE ( 'NONE', ( #166, #81 ), #86, .T. ) ;
#228 = EDGE_LOOP ( 'NONE', ( #32 ) ) ;
#229 = APPLICATION_CONTEXT ( 'configuration controlled 3d designs of mechanical parts and assemblies' ) ;
#230 = CYLINDRICAL_SURFACE ( 'NONE', #151, 1.999999999999993561 ) ;
#231 = CIRCLE ( 'NONE', #146, 2.863999999999997659 ) ;
#232 = PERSON ( 'UNSPECIFIED', 'UNSPECIFIED', 'UNSPECIFIED', ('UNSPECIFIED'), ('UNSPECIFIED'), ('UNSPECIFIED') ) ;
#233 = EDGE_LOOP ( 'NONE', ( #155 ) ) ;
#234 = CIRCLE ( 'NONE', #171, 2.633059892324147722 ) ;
#235 = DIRECTION ( 'NONE',  ( -3.491481338843133355E-15, -5.391352267435197561E-16, -1.000000000000000000 ) ) ;
#236 = DIRECTION ( 'NONE',  ( -3.491481338843133355E-15, 9.031770143711729009E-17, -1.000000000000000000 ) ) ;
#237 = APPROVAL_DATE_TIME ( #52, #183 ) ;
#238 = LOCAL_TIME ( 11, 4, 12.00000000000000000, #90 ) ;
#239 = CARTESIAN_POINT ( 'NONE',  ( 4.362733906486834031E-14, -1.128552783691018703E-15, 12.49536653096470928 ) ) ;
#240 = EDGE_CURVE ( 'NONE', #148, #148, #222, .T. ) ;
#241 = FACE_OUTER_BOUND ( 'NONE', #228, .T. ) ;
#242 = CARTESIAN_POINT ( 'NONE',  ( 0.0000000000000000000, 0.0000000000000000000, 0.0000000000000000000 ) ) ;
#243 = APPROVAL_ROLE ( '' ) ;
ENDSEC;
END-ISO-10303-21;
