ISO-10303-21;
HEADER;
FILE_DESCRIPTION (( 'STEP AP203' ),
    '1' );
FILE_NAME ('321475.step',
    '2021-11-26T10:04:12',
    ( '' ),
    ( '' ),
    'SwSTEP 2.0',
    'SolidWorks 2019',
    '' );
FILE_SCHEMA (( 'CONFIG_CONTROL_DESIGN' ));
ENDSEC;

DATA;
#1 = DIRECTION ( 'NONE',  ( 0.0000000000000000000, 1.000000000000000000, 0.0000000000000000000 ) ) ;
#2 = PERSON_AND_ORGANIZATION ( #37, #42 ) ;
#3 = DIRECTION ( 'NONE',  ( -1.880484565967804234E-30, 1.000000000000000000, -5.385921858001061592E-16 ) ) ;
#4 = CIRCLE ( 'NONE', #212, 2.858999999999999098 ) ;
#5 = COORDINATED_UNIVERSAL_TIME_OFFSET ( 1, 0, .AHEAD. ) ;
#6 = CARTESIAN_POINT ( 'NONE',  ( 0.0000000000000000000, 0.0000000000000000000, 0.0000000000000000000 ) ) ;
#7 = DIRECTION ( 'NONE',  ( -3.153425691349006731E-31, -1.000000000000000000, -9.031770143711729009E-17 ) ) ;
#8 = PERSON_AND_ORGANIZATION ( #37, #42 ) ;
#9 = LOCAL_TIME ( 11, 4, 12.00000000000000000, #5 ) ;
#10 = FACE_OUTER_BOUND ( 'NONE', #164, .T. ) ;
#11 = VERTEX_POINT ( 'NONE', #125 ) ;
#12 = CARTESIAN_POINT ( 'NONE',  ( 2.793185071074506684E-13, -7.225416114969383207E-15, 80.00000000000000000 ) ) ;
#13 = DATE_AND_TIME ( #134, #44 ) ;
#14 = CIRCLE ( 'NONE', #107, 1.599999999999994982 ) ;
#15 = EDGE_CURVE ( 'NONE', #219, #219, #4, .T. ) ;
#16 = PERSON_AND_ORGANIZATION ( #37, #42 ) ;
#17 = CC_DESIGN_SECURITY_CLASSIFICATION ( #78, ( #46 ) ) ;
#18 = CC_DESIGN_DATE_AND_TIME_ASSIGNMENT ( #112, #171, ( #78 ) ) ;
#19 = ORIENTED_EDGE ( 'NONE', *, *, #205, .T. ) ;
#20 = CARTESIAN_POINT ( 'NONE',  ( 4.365757618023110904E-14, 6.734571117437599812E-15, 12.50402678500255149 ) ) ;
#21 = DIRECTION ( 'NONE',  ( 1.880484565967804234E-30, -1.000000000000000000, 5.385921858001061592E-16 ) ) ;
#22 = VERTEX_POINT ( 'NONE', #177 ) ;
#23 = CLOSED_SHELL ( 'NONE', ( #161, #195, #136, #228, #114 ) ) ;
#24 = CIRCLE ( 'NONE', #56, 2.628059892324147384 ) ;
#25 = PRODUCT_DEFINITION ( 'UNKNOWN', '', #46, #196 ) ;
#26 = APPROVAL ( #190, 'UNSPECIFIED' ) ;
#27 = AXIS2_PLACEMENT_3D ( 'NONE', #233, #93, #32 ) ;
#28 = DIRECTION ( 'NONE',  ( -3.491481338843133355E-15, -5.385921858001061592E-16, -1.000000000000000000 ) ) ;
#29 = CC_DESIGN_PERSON_AND_ORGANIZATION_ASSIGNMENT ( #8, #131, ( #46 ) ) ;
#30 = DIRECTION ( 'NONE',  ( -1.880484565967804234E-30, 1.000000000000000000, -5.385921858001062578E-16 ) ) ;
#31 = DIRECTION ( 'NONE',  ( 3.491481338843133355E-15, 5.385921858001061592E-16, 1.000000000000000000 ) ) ;
#32 = DIRECTION ( 'NONE',  ( -2.155640371472253801E-30, 1.000000000000000000, -6.067588233567024872E-16 ) ) ;
#33 = AXIS2_PLACEMENT_3D ( 'NONE', #47, #121, #82 ) ;
#34 = AXIS2_PLACEMENT_3D ( 'NONE', #83, #229, #146 ) ;
#35 = DATE_AND_TIME ( #220, #9 ) ;
#36 = CARTESIAN_POINT ( 'NONE',  ( 2.779219145719134403E-13, 1.999999999999988010, 79.60000000000000853 ) ) ;
#37 = PERSON ( 'UNSPECIFIED', 'UNSPECIFIED', 'UNSPECIFIED', ('UNSPECIFIED'), ('UNSPECIFIED'), ('UNSPECIFIED') ) ;
#38 = FACE_BOUND ( 'NONE', #135, .T. ) ;
#39 = PERSON_AND_ORGANIZATION ( #37, #42 ) ;
#40 = APPROVAL_DATE_TIME ( #35, #96 ) ;
#41 = AXIS2_PLACEMENT_3D ( 'NONE', #20, #95, #21 ) ;
#42 = ORGANIZATION ( 'UNSPECIFIED', 'UNSPECIFIED', '' ) ;
#43 = CIRCLE ( 'NONE', #153, 1.999999999999991784 ) ;
#44 = LOCAL_TIME ( 11, 4, 12.00000000000000000, #172 ) ;
#45 = UNCERTAINTY_MEASURE_WITH_UNIT (LENGTH_MEASURE( 1.000000000000000082E-05 ), #158, 'distance_accuracy_value', 'NONE');
#46 = PRODUCT_DEFINITION_FORMATION_WITH_SPECIFIED_SOURCE ( 'ANY', '', #54, .NOT_KNOWN. ) ;
#47 = CARTESIAN_POINT ( 'NONE',  ( 2.779219145719134403E-13, -7.189289034394536528E-15, 79.60000000000000853 ) ) ;
#48 = PLANE ( 'NONE',  #198 ) ;
#49 = CARTESIAN_POINT ( 'NONE',  ( 2.793185071074506684E-13, -7.225416114969383207E-15, 80.00000000000000000 ) ) ;
#50 = APPLICATION_PROTOCOL_DEFINITION ( 'international standard', 'config_control_design', 1994, #59 ) ;
#51 = VERTEX_POINT ( 'NONE', #36 ) ;
#52 = CC_DESIGN_APPROVAL ( #96, ( #78 ) ) ;
#53 = VERTEX_POINT ( 'NONE', #61 ) ;
#54 = PRODUCT ( '321475', '321475', '', ( #166 ) ) ;
#55 = EDGE_LOOP ( 'NONE', ( #238 ) ) ;
#56 = AXIS2_PLACEMENT_3D ( 'NONE', #143, #28, #101 ) ;
#57 = LOCAL_TIME ( 11, 4, 12.00000000000000000, #110 ) ;
#58 = CC_DESIGN_PERSON_AND_ORGANIZATION_ASSIGNMENT ( #184, #191, ( #25 ) ) ;
#59 = APPLICATION_CONTEXT ( 'configuration controlled 3d designs of mechanical parts and assemblies' ) ;
#60 = ORIENTED_EDGE ( 'NONE', *, *, #150, .F. ) ;
#61 = CARTESIAN_POINT ( 'NONE',  ( 4.365757618023111535E-14, 2.858999999999997765, 12.50402678500255327 ) ) ;
#62 = FACE_OUTER_BOUND ( 'NONE', #236, .T. ) ;
#63 = AXIS2_PLACEMENT_3D ( 'NONE', #69, #230, #133 ) ;
#64 = EDGE_CURVE ( 'NONE', #51, #51, #106, .T. ) ;
#65 = EDGE_LOOP ( 'NONE', ( #147 ) ) ;
#66 = MANIFOLD_SOLID_BREP ( 'Corps-Déplacer/Copier1[1]', #23 ) ;
#67 = CYLINDRICAL_SURFACE ( 'NONE', #141, 1.999999999999993561 ) ;
#68 = EDGE_LOOP ( 'NONE', ( #175 ) ) ;
#69 = CARTESIAN_POINT ( 'NONE',  ( 4.365757618023111535E-14, -1.129334957929578196E-15, 12.50402678500255327 ) ) ;
#70 = CC_DESIGN_PERSON_AND_ORGANIZATION_ASSIGNMENT ( #127, #109, ( #54 ) ) ;
#71 = FACE_OUTER_BOUND ( 'NONE', #124, .T. ) ;
#72 = CARTESIAN_POINT ( 'NONE',  ( 1.396592535537258470E-15, 2.154368743200432673E-16, 0.4000000000000014655 ) ) ;
#73 = APPROVAL_PERSON_ORGANIZATION ( #39, #26, #208 ) ;
#74 = DIRECTION ( 'NONE',  ( -3.491481338843133355E-15, -5.385921858001061592E-16, -1.000000000000000000 ) ) ;
#75 = APPROVAL_DATE_TIME ( #13, #26 ) ;
#76 = AXIS2_PLACEMENT_3D ( 'NONE', #72, #74, #151 ) ;
#77 = PRODUCT_DEFINITION_SHAPE ( 'NONE', 'NONE',  #25 ) ;
#78 = SECURITY_CLASSIFICATION ( '', '', #206 ) ;
#79 = ORIENTED_EDGE ( 'NONE', *, *, #178, .F. ) ;
#80 = DIRECTION ( 'NONE',  ( 3.153425691349006731E-31, 1.000000000000000000, 9.031770143711729009E-17 ) ) ;
#81 = ADVANCED_BREP_SHAPE_REPRESENTATION ( '321475', ( #66, #154, #115 ), #129 ) ;
#82 = DIRECTION ( 'NONE',  ( 0.0000000000000000000, 1.000000000000000000, 0.0000000000000000000 ) ) ;
#83 = CARTESIAN_POINT ( 'NONE',  ( 4.365757618023110904E-14, 2.858999999999997765, 12.50402678500255149 ) ) ;
#84 =( NAMED_UNIT ( * ) SI_UNIT ( $, .STERADIAN. ) SOLID_ANGLE_UNIT ( ) );
#85 = PLANE ( 'NONE',  #34 ) ;
#86 = FACE_OUTER_BOUND ( 'NONE', #65, .T. ) ;
#87 = CALENDAR_DATE ( 2021, 26, 11 ) ;
#88 = CC_DESIGN_PERSON_AND_ORGANIZATION_ASSIGNMENT ( #186, #91, ( #78 ) ) ;
#89 = LOCAL_TIME ( 11, 4, 12.00000000000000000, #149 ) ;
#90 = DIRECTION ( 'NONE',  ( -3.491481338843133355E-15, 9.031770143711729009E-17, -1.000000000000000000 ) ) ;
#91 = PERSON_AND_ORGANIZATION_ROLE ( 'classification_officer' ) ;
#92 = SHAPE_DEFINITION_REPRESENTATION ( #77, #81 ) ;
#93 = DIRECTION ( 'NONE',  ( -3.491481338843133355E-15, -5.385921858001061592E-16, -1.000000000000000000 ) ) ;
#94 = EDGE_LOOP ( 'NONE', ( #214 ) ) ;
#95 = DIRECTION ( 'NONE',  ( 3.491481338843133355E-15, 5.385921858001061592E-16, 1.000000000000000000 ) ) ;
#96 = APPROVAL ( #202, 'UNSPECIFIED' ) ;
#97 = ADVANCED_FACE ( 'NONE', ( #108, #185 ), #227, .T. ) ;
#98 = CARTESIAN_POINT ( 'NONE',  ( 4.885231259955590439E-14, -1.263712492114123682E-15, 13.99185842870425134 ) ) ;
#99 = ADVANCED_FACE ( 'NONE', ( #62, #201 ), #137, .T. ) ;
#100 = CIRCLE ( 'NONE', #27, 2.858999999999991104 ) ;
#101 = DIRECTION ( 'NONE',  ( -1.880484565967804234E-30, 1.000000000000000000, -5.385921858001061592E-16 ) ) ;
#102 = EDGE_CURVE ( 'NONE', #222, #222, #24, .T. ) ;
#103 = DIRECTION ( 'NONE',  ( 1.880484565967804234E-30, -1.000000000000000000, 5.385921858001061592E-16 ) ) ;
#104 = FACE_BOUND ( 'NONE', #209, .T. ) ;
#105 = DATE_AND_TIME ( #231, #57 ) ;
#106 = CIRCLE ( 'NONE', #33, 1.999999999999995337 ) ;
#107 = AXIS2_PLACEMENT_3D ( 'NONE', #49, #90, #221 ) ;
#108 = FACE_OUTER_BOUND ( 'NONE', #94, .T. ) ;
#109 = PERSON_AND_ORGANIZATION_ROLE ( 'design_owner' ) ;
#110 = COORDINATED_UNIVERSAL_TIME_OFFSET ( 1, 0, .AHEAD. ) ;
#111 = DIRECTION ( 'NONE',  ( 1.000000000000000000, 0.0000000000000000000, 0.0000000000000000000 ) ) ;
#112 = DATE_AND_TIME ( #218, #89 ) ;
#113 = ORIENTED_EDGE ( 'NONE', *, *, #102, .T. ) ;
#114 = ADVANCED_FACE ( 'NONE', ( #180 ), #85, .T. ) ;
#115 = AXIS2_PLACEMENT_3D ( 'NONE', #232, #204, #111 ) ;
#116 = CARTESIAN_POINT ( 'NONE',  ( 1.396592535537253145E-15, 2.858999999999997765, 0.3999999999999999667 ) ) ;
#117 = APPLICATION_CONTEXT ( 'configuration controlled 3d designs of mechanical parts and assemblies' ) ;
#118 = ADVANCED_FACE ( 'NONE', ( #71 ), #48, .T. ) ;
#119 = CC_DESIGN_APPROVAL ( #223, ( #25 ) ) ;
#120 = EDGE_LOOP ( 'NONE', ( #145 ) ) ;
#121 = DIRECTION ( 'NONE',  ( -3.491481338843133355E-15, 9.031770143711729009E-17, -1.000000000000000000 ) ) ;
#122 = AXIS2_PLACEMENT_3D ( 'NONE', #199, #31, #103 ) ;
#123 = EDGE_LOOP ( 'NONE', ( #240 ) ) ;
#124 = EDGE_LOOP ( 'NONE', ( #113 ) ) ;
#125 = CARTESIAN_POINT ( 'NONE',  ( 4.885231259955590439E-14, 1.999999999999990452, 13.99185842870425134 ) ) ;
#126 = PERSON_AND_ORGANIZATION_ROLE ( 'design_supplier' ) ;
#127 = PERSON_AND_ORGANIZATION ( #37, #42 ) ;
#128 = ORIENTED_EDGE ( 'NONE', *, *, #15, .F. ) ;
#129 =( GEOMETRIC_REPRESENTATION_CONTEXT ( 3 ) GLOBAL_UNCERTAINTY_ASSIGNED_CONTEXT ( ( #45 ) ) GLOBAL_UNIT_ASSIGNED_CONTEXT ( ( #158, #243, #84 ) ) REPRESENTATION_CONTEXT ( 'NONE', 'WORKASPACE' ) );
#130 = DIRECTION ( 'NONE',  ( 3.491481338843133355E-15, -9.031770143711729009E-17, 1.000000000000000000 ) ) ;
#131 = PERSON_AND_ORGANIZATION_ROLE ( 'creator' ) ;
#132 = CC_DESIGN_DATE_AND_TIME_ASSIGNMENT ( #174, #169, ( #25 ) ) ;
#133 = DIRECTION ( 'NONE',  ( 0.0000000000000000000, 1.000000000000000000, 0.0000000000000000000 ) ) ;
#134 = CALENDAR_DATE ( 2021, 26, 11 ) ;
#135 = EDGE_LOOP ( 'NONE', ( #138 ) ) ;
#136 = ADVANCED_FACE ( 'NONE', ( #86, #10 ), #67, .T. ) ;
#137 = CONICAL_SURFACE ( 'NONE', #122, 2.628059892324147384, 0.5235987755982987046 ) ;
#138 = ORIENTED_EDGE ( 'NONE', *, *, #150, .T. ) ;
#139 = EDGE_LOOP ( 'NONE', ( #79 ) ) ;
#140 = FACE_OUTER_BOUND ( 'NONE', #139, .T. ) ;
#141 = AXIS2_PLACEMENT_3D ( 'NONE', #162, #193, #80 ) ;
#142 = APPROVAL_ROLE ( '' ) ;
#143 = CARTESIAN_POINT ( 'NONE',  ( 4.942026065954568639E-30, 7.623516676235508373E-31, 1.415452521820454207E-15 ) ) ;
#144 = CONICAL_SURFACE ( 'NONE', #63, 2.858999999999999098, 0.5235987755982931535 ) ;
#145 = ORIENTED_EDGE ( 'NONE', *, *, #205, .F. ) ;
#146 = DIRECTION ( 'NONE',  ( 3.153425691349006731E-31, 1.000000000000000000, 9.031770143711729009E-17 ) ) ;
#147 = ORIENTED_EDGE ( 'NONE', *, *, #64, .T. ) ;
#148 = CARTESIAN_POINT ( 'NONE',  ( 2.779219145719134403E-13, -7.189289034394536528E-15, 79.60000000000000853 ) ) ;
#149 = COORDINATED_UNIVERSAL_TIME_OFFSET ( 1, 0, .AHEAD. ) ;
#150 = EDGE_CURVE ( 'NONE', #11, #11, #43, .T. ) ;
#151 = DIRECTION ( 'NONE',  ( -1.886185325038217916E-30, 1.000000000000000000, -5.309139704371135053E-16 ) ) ;
#152 = APPROVAL_ROLE ( '' ) ;
#153 = AXIS2_PLACEMENT_3D ( 'NONE', #98, #179, #242 ) ;
#154 = MANIFOLD_SOLID_BREP ( 'Corps-Déplacer/Copier1[2]', #197 ) ;
#155 = CARTESIAN_POINT ( 'NONE',  ( 4.365757618023111535E-14, 2.858999999999997765, 12.50402678500255327 ) ) ;
#156 = ADVANCED_FACE ( 'NONE', ( #140 ), #194, .T. ) ;
#157 = APPROVAL_DATE_TIME ( #105, #223 ) ;
#158 =( LENGTH_UNIT ( ) NAMED_UNIT ( * ) SI_UNIT ( .MILLI., .METRE. ) );
#159 = EDGE_LOOP ( 'NONE', ( #128 ) ) ;
#160 = CC_DESIGN_PERSON_AND_ORGANIZATION_ASSIGNMENT ( #16, #126, ( #46 ) ) ;
#161 = ADVANCED_FACE ( 'NONE', ( #226 ), #207, .T. ) ;
#162 = CARTESIAN_POINT ( 'NONE',  ( 0.0000000000000000000, 0.0000000000000000000, 0.0000000000000000000 ) ) ;
#163 = AXIS2_PLACEMENT_3D ( 'NONE', #6, #167, #30 ) ;
#164 = EDGE_LOOP ( 'NONE', ( #60 ) ) ;
#165 = PRODUCT_RELATED_PRODUCT_CATEGORY ( 'detail', '', ( #54 ) ) ;
#166 = MECHANICAL_CONTEXT ( 'NONE', #59, 'mechanical' ) ;
#167 = DIRECTION ( 'NONE',  ( -3.491481338843133355E-15, -5.385921858001061592E-16, -1.000000000000000000 ) ) ;
#168 = FACE_OUTER_BOUND ( 'NONE', #68, .T. ) ;
#169 = DATE_TIME_ROLE ( 'creation_date' ) ;
#170 = FACE_OUTER_BOUND ( 'NONE', #159, .T. ) ;
#171 = DATE_TIME_ROLE ( 'classification_date' ) ;
#172 = COORDINATED_UNIVERSAL_TIME_OFFSET ( 1, 0, .AHEAD. ) ;
#173 = DIRECTION ( 'NONE',  ( 0.0000000000000000000, 1.000000000000000000, 0.0000000000000000000 ) ) ;
#174 = DATE_AND_TIME ( #87, #200 ) ;
#175 = ORIENTED_EDGE ( 'NONE', *, *, #64, .F. ) ;
#176 = AXIS2_PLACEMENT_3D ( 'NONE', #12, #130, #7 ) ;
#177 = CARTESIAN_POINT ( 'NONE',  ( 2.793185071074506684E-13, 1.599999999999987876, 80.00000000000000000 ) ) ;
#178 = EDGE_CURVE ( 'NONE', #53, #53, #100, .T. ) ;
#179 = DIRECTION ( 'NONE',  ( -3.491481338843133355E-15, 9.031770143711729009E-17, -1.000000000000000000 ) ) ;
#180 = FACE_OUTER_BOUND ( 'NONE', #225, .T. ) ;
#181 = APPROVAL_PERSON_ORGANIZATION ( #2, #223, #142 ) ;
#182 = DIRECTION ( 'NONE',  ( -3.491481338843133355E-15, -5.385921858001061592E-16, -1.000000000000000000 ) ) ;
#183 = CARTESIAN_POINT ( 'NONE',  ( -2.471013032977284319E-30, 2.628059892324147384, -7.077262609102271036E-16 ) ) ;
#184 = PERSON_AND_ORGANIZATION ( #37, #42 ) ;
#185 = FACE_OUTER_BOUND ( 'NONE', #55, .T. ) ;
#186 = PERSON_AND_ORGANIZATION ( #37, #42 ) ;
#187 = CC_DESIGN_APPROVAL ( #26, ( #46 ) ) ;
#188 = APPROVAL_STATUS ( 'not_yet_approved' ) ;
#189 = CARTESIAN_POINT ( 'NONE',  ( 0.0000000000000000000, 2.628059892324147384, 0.0000000000000000000 ) ) ;
#190 = APPROVAL_STATUS ( 'not_yet_approved' ) ;
#191 = PERSON_AND_ORGANIZATION_ROLE ( 'creator' ) ;
#192 = ORIENTED_EDGE ( 'NONE', *, *, #15, .T. ) ;
#193 = DIRECTION ( 'NONE',  ( -3.491481338843133355E-15, 9.031770143711729009E-17, -1.000000000000000000 ) ) ;
#194 = PLANE ( 'NONE',  #41 ) ;
#195 = ADVANCED_FACE ( 'NONE', ( #104, #168 ), #213, .T. ) ;
#196 = DESIGN_CONTEXT ( 'detailed design', #117, 'design' ) ;
#197 = CLOSED_SHELL ( 'NONE', ( #156, #97, #99, #118 ) ) ;
#198 = AXIS2_PLACEMENT_3D ( 'NONE', #183, #182, #3 ) ;
#199 = CARTESIAN_POINT ( 'NONE',  ( 4.942026065954568639E-30, 7.623516676235508373E-31, 1.415452521820454207E-15 ) ) ;
#200 = LOCAL_TIME ( 11, 4, 12.00000000000000000, #235 ) ;
#201 = FACE_BOUND ( 'NONE', #123, .T. ) ;
#202 = APPROVAL_STATUS ( 'not_yet_approved' ) ;
#203 = CARTESIAN_POINT ( 'NONE',  ( 4.365757618023111535E-14, -1.129334957929578196E-15, 12.50402678500255327 ) ) ;
#204 = DIRECTION ( 'NONE',  ( 0.0000000000000000000, 0.0000000000000000000, 1.000000000000000000 ) ) ;
#205 = EDGE_CURVE ( 'NONE', #22, #22, #14, .T. ) ;
#206 = SECURITY_CLASSIFICATION_LEVEL ( 'unclassified' ) ;
#207 = PLANE ( 'NONE',  #176 ) ;
#208 = APPROVAL_ROLE ( '' ) ;
#209 = EDGE_LOOP ( 'NONE', ( #19 ) ) ;
#210 = ORIENTED_EDGE ( 'NONE', *, *, #237, .T. ) ;
#211 = DIRECTION ( 'NONE',  ( -3.491481338843133355E-15, 9.031770143711729009E-17, -1.000000000000000000 ) ) ;
#212 = AXIS2_PLACEMENT_3D ( 'NONE', #203, #211, #1 ) ;
#213 = CONICAL_SURFACE ( 'NONE', #239, 1.999999999999995337, 0.7853981633974516097 ) ;
#214 = ORIENTED_EDGE ( 'NONE', *, *, #178, .T. ) ;
#215 = CIRCLE ( 'NONE', #76, 2.858999999999997765 ) ;
#216 = APPLICATION_PROTOCOL_DEFINITION ( 'international standard', 'config_control_design', 1994, #117 ) ;
#217 = DIRECTION ( 'NONE',  ( -3.491481338843133355E-15, 9.031770143711729009E-17, -1.000000000000000000 ) ) ;
#218 = CALENDAR_DATE ( 2021, 26, 11 ) ;
#219 = VERTEX_POINT ( 'NONE', #155 ) ;
#220 = CALENDAR_DATE ( 2021, 26, 11 ) ;
#221 = DIRECTION ( 'NONE',  ( 0.0000000000000000000, 1.000000000000000000, 0.0000000000000000000 ) ) ;
#222 = VERTEX_POINT ( 'NONE', #189 ) ;
#223 = APPROVAL ( #188, 'UNSPECIFIED' ) ;
#224 = APPROVAL_PERSON_ORGANIZATION ( #234, #96, #152 ) ;
#225 = EDGE_LOOP ( 'NONE', ( #192 ) ) ;
#226 = FACE_OUTER_BOUND ( 'NONE', #120, .T. ) ;
#227 = CYLINDRICAL_SURFACE ( 'NONE', #163, 2.858999999999994213 ) ;
#228 = ADVANCED_FACE ( 'NONE', ( #38, #170 ), #144, .T. ) ;
#229 = DIRECTION ( 'NONE',  ( -3.491481338843133355E-15, 9.031770143711729009E-17, -1.000000000000000000 ) ) ;
#230 = DIRECTION ( 'NONE',  ( -3.491481338843133355E-15, 9.031770143711729009E-17, -1.000000000000000000 ) ) ;
#231 = CALENDAR_DATE ( 2021, 26, 11 ) ;
#232 = CARTESIAN_POINT ( 'NONE',  ( 0.0000000000000000000, 0.0000000000000000000, 0.0000000000000000000 ) ) ;
#233 = CARTESIAN_POINT ( 'NONE',  ( 4.365757618023112167E-14, 6.734571117437600601E-15, 12.50402678500255504 ) ) ;
#234 = PERSON_AND_ORGANIZATION ( #37, #42 ) ;
#235 = COORDINATED_UNIVERSAL_TIME_OFFSET ( 1, 0, .AHEAD. ) ;
#236 = EDGE_LOOP ( 'NONE', ( #210 ) ) ;
#237 = EDGE_CURVE ( 'NONE', #241, #241, #215, .T. ) ;
#238 = ORIENTED_EDGE ( 'NONE', *, *, #237, .F. ) ;
#239 = AXIS2_PLACEMENT_3D ( 'NONE', #148, #217, #173 ) ;
#240 = ORIENTED_EDGE ( 'NONE', *, *, #102, .F. ) ;
#241 = VERTEX_POINT ( 'NONE', #116 ) ;
#242 = DIRECTION ( 'NONE',  ( 0.0000000000000000000, 1.000000000000000000, 0.0000000000000000000 ) ) ;
#243 =( NAMED_UNIT ( * ) PLANE_ANGLE_UNIT ( ) SI_UNIT ( $, .RADIAN. ) );
ENDSEC;
END-ISO-10303-21;
