ISO-10303-21;
HEADER;
FILE_DESCRIPTION (( 'STEP AP203' ),
    '1' );
FILE_NAME ('321474.step',
    '2021-11-26T10:04:11',
    ( '' ),
    ( '' ),
    'SwSTEP 2.0',
    'SolidWorks 2019',
    '' );
FILE_SCHEMA (( 'CONFIG_CONTROL_DESIGN' ));
ENDSEC;

DATA;
#1 = EDGE_LOOP ( 'NONE', ( #19 ) ) ;
#2 = DATE_AND_TIME ( #169, #52 ) ;
#3 = ORIENTED_EDGE ( 'NONE', *, *, #235, .F. ) ;
#4 = APPROVAL_DATE_TIME ( #2, #103 ) ;
#5 = CC_DESIGN_APPROVAL ( #78, ( #39 ) ) ;
#6 = MECHANICAL_CONTEXT ( 'NONE', #228, 'mechanical' ) ;
#7 = DATE_AND_TIME ( #174, #233 ) ;
#8 = DIRECTION ( 'NONE',  ( 1.878591173182506011E-30, -1.000000000000000000, 5.380498965533517825E-16 ) ) ;
#9 = FACE_OUTER_BOUND ( 'NONE', #234, .T. ) ;
#10 = DIRECTION ( 'NONE',  ( -3.491481338843133355E-15, -5.380498965533517825E-16, -1.000000000000000000 ) ) ;
#11 = FACE_OUTER_BOUND ( 'NONE', #236, .T. ) ;
#12 = EDGE_CURVE ( 'NONE', #204, #204, #56, .T. ) ;
#13 = CONICAL_SURFACE ( 'NONE', #115, 2.623059892324148379, 0.5235987755982978165 ) ;
#14 = DIRECTION ( 'NONE',  ( -3.491481338843133355E-15, -5.380498965533517825E-16, -1.000000000000000000 ) ) ;
#15 = AXIS2_PLACEMENT_3D ( 'NONE', #49, #10, #146 ) ;
#16 = VERTEX_POINT ( 'NONE', #184 ) ;
#17 = CC_DESIGN_PERSON_AND_ORGANIZATION_ASSIGNMENT ( #137, #75, ( #151 ) ) ;
#18 = COORDINATED_UNIVERSAL_TIME_OFFSET ( 1, 0, .AHEAD. ) ;
#19 = ORIENTED_EDGE ( 'NONE', *, *, #62, .F. ) ;
#20 = CC_DESIGN_DATE_AND_TIME_ASSIGNMENT ( #139, #24, ( #36 ) ) ;
#21 = SECURITY_CLASSIFICATION_LEVEL ( 'unclassified' ) ;
#22 = APPROVAL_DATE_TIME ( #7, #162 ) ;
#23 = PRODUCT_RELATED_PRODUCT_CATEGORY ( 'detail', '', ( #218 ) ) ;
#24 = DATE_TIME_ROLE ( 'classification_date' ) ;
#25 = AXIS2_PLACEMENT_3D ( 'NONE', #240, #202, #128 ) ;
#26 = ORIENTED_EDGE ( 'NONE', *, *, #120, .T. ) ;
#27 = DIRECTION ( 'NONE',  ( 3.491481338843133355E-15, 5.380498965533517825E-16, 1.000000000000000000 ) ) ;
#28 = CARTESIAN_POINT ( 'NONE',  ( 1.396592535537258470E-15, 2.152199586213415019E-16, 0.4000000000000014655 ) ) ;
#29 = EDGE_LOOP ( 'NONE', ( #26 ) ) ;
#30 = MANIFOLD_SOLID_BREP ( 'Corps-Déplacer/Copier1[2]', #216 ) ;
#31 = DIRECTION ( 'NONE',  ( 3.491481338843133355E-15, -9.031770143711729009E-17, 1.000000000000000000 ) ) ;
#32 = CARTESIAN_POINT ( 'NONE',  ( 4.368781329559389040E-14, 2.853999999999998316, 12.51268703904039725 ) ) ;
#33 = MANIFOLD_SOLID_BREP ( 'Corps-Déplacer/Copier1[1]', #118 ) ;
#34 = AXIS2_PLACEMENT_3D ( 'NONE', #121, #163, #179 ) ;
#35 = CARTESIAN_POINT ( 'NONE',  ( 4.368781329559389040E-14, 2.853999999999998316, 12.51268703904039725 ) ) ;
#36 = SECURITY_CLASSIFICATION ( '', '', #21 ) ;
#37 = CARTESIAN_POINT ( 'NONE',  ( 2.793185071074506684E-13, 1.599999999999987876, 80.00000000000000000 ) ) ;
#38 = CIRCLE ( 'NONE', #106, 2.853999999999991655 ) ;
#39 = PRODUCT_DEFINITION_FORMATION_WITH_SPECIFIED_SOURCE ( 'ANY', '', #218, .NOT_KNOWN. ) ;
#40 = AXIS2_PLACEMENT_3D ( 'NONE', #219, #53, #192 ) ;
#41 = CALENDAR_DATE ( 2021, 26, 11 ) ;
#42 = EDGE_LOOP ( 'NONE', ( #80 ) ) ;
#43 = CIRCLE ( 'NONE', #47, 1.999999999999991784 ) ;
#44 = PERSON_AND_ORGANIZATION_ROLE ( 'classification_officer' ) ;
#45 = APPROVAL_STATUS ( 'not_yet_approved' ) ;
#46 = EDGE_LOOP ( 'NONE', ( #198 ) ) ;
#47 = AXIS2_PLACEMENT_3D ( 'NONE', #64, #50, #140 ) ;
#48 = FACE_OUTER_BOUND ( 'NONE', #208, .T. ) ;
#49 = CARTESIAN_POINT ( 'NONE',  ( -2.463828580224600124E-30, 2.623059892324148379, -7.056685518591270842E-16 ) ) ;
#50 = DIRECTION ( 'NONE',  ( -3.491481338843133355E-15, 9.031770143711729009E-17, -1.000000000000000000 ) ) ;
#51 = FACE_BOUND ( 'NONE', #29, .T. ) ;
#52 = LOCAL_TIME ( 11, 4, 11.00000000000000000, #77 ) ;
#53 = DIRECTION ( 'NONE',  ( 0.0000000000000000000, 0.0000000000000000000, 1.000000000000000000 ) ) ;
#54 = CC_DESIGN_DATE_AND_TIME_ASSIGNMENT ( #156, #209, ( #151 ) ) ;
#55 = DIRECTION ( 'NONE',  ( -3.153425691349006731E-31, -1.000000000000000000, -9.031770143711729009E-17 ) ) ;
#56 = CIRCLE ( 'NONE', #231, 2.853999999999997872 ) ;
#57 = DIRECTION ( 'NONE',  ( 3.153425691349006731E-31, 1.000000000000000000, 9.031770143711729009E-17 ) ) ;
#58 = ADVANCED_FACE ( 'NONE', ( #9, #11 ), #97, .T. ) ;
#59 = PERSON_AND_ORGANIZATION_ROLE ( 'creator' ) ;
#60 = APPROVAL_DATE_TIME ( #93, #78 ) ;
#61 = PERSON_AND_ORGANIZATION ( #84, #65 ) ;
#62 = EDGE_CURVE ( 'NONE', #150, #150, #100, .T. ) ;
#63 = ADVANCED_BREP_SHAPE_REPRESENTATION ( '321474', ( #33, #30, #40 ), #74 ) ;
#64 = CARTESIAN_POINT ( 'NONE',  ( 4.885231259955590439E-14, -1.263712492114123682E-15, 13.99185842870425134 ) ) ;
#65 = ORGANIZATION ( 'UNSPECIFIED', 'UNSPECIFIED', '' ) ;
#66 = DIRECTION ( 'NONE',  ( -3.491481338843133355E-15, -5.380498965533517825E-16, -1.000000000000000000 ) ) ;
#67 = CARTESIAN_POINT ( 'NONE',  ( 4.927657160449200248E-30, 7.593697826575137657E-31, 1.411337103718254168E-15 ) ) ;
#68 = AXIS2_PLACEMENT_3D ( 'NONE', #165, #129, #57 ) ;
#69 = LOCAL_TIME ( 11, 4, 11.00000000000000000, #207 ) ;
#70 = PLANE ( 'NONE',  #81 ) ;
#71 = CARTESIAN_POINT ( 'NONE',  ( 2.793185071074506684E-13, -7.225416114969383207E-15, 80.00000000000000000 ) ) ;
#72 = UNCERTAINTY_MEASURE_WITH_UNIT (LENGTH_MEASURE( 1.000000000000000082E-05 ), #243, 'distance_accuracy_value', 'NONE');
#73 = VERTEX_POINT ( 'NONE', #37 ) ;
#74 =( GEOMETRIC_REPRESENTATION_CONTEXT ( 3 ) GLOBAL_UNCERTAINTY_ASSIGNED_CONTEXT ( ( #72 ) ) GLOBAL_UNIT_ASSIGNED_CONTEXT ( ( #243, #105, #201 ) ) REPRESENTATION_CONTEXT ( 'NONE', 'WORKASPACE' ) );
#75 = PERSON_AND_ORGANIZATION_ROLE ( 'creator' ) ;
#76 = APPROVAL_STATUS ( 'not_yet_approved' ) ;
#77 = COORDINATED_UNIVERSAL_TIME_OFFSET ( 1, 0, .AHEAD. ) ;
#78 = APPROVAL ( #76, 'UNSPECIFIED' ) ;
#79 = CARTESIAN_POINT ( 'NONE',  ( 2.779219145719134403E-13, -7.189289034394536528E-15, 79.60000000000000853 ) ) ;
#80 = ORIENTED_EDGE ( 'NONE', *, *, #226, .T. ) ;
#81 = AXIS2_PLACEMENT_3D ( 'NONE', #71, #31, #55 ) ;
#82 = ORIENTED_EDGE ( 'NONE', *, *, #235, .T. ) ;
#83 = DIRECTION ( 'NONE',  ( 1.878591173182506011E-30, -1.000000000000000000, 5.380498965533517825E-16 ) ) ;
#84 = PERSON ( 'UNSPECIFIED', 'UNSPECIFIED', 'UNSPECIFIED', ('UNSPECIFIED'), ('UNSPECIFIED'), ('UNSPECIFIED') ) ;
#85 = FACE_OUTER_BOUND ( 'NONE', #143, .T. ) ;
#86 = AXIS2_PLACEMENT_3D ( 'NONE', #125, #66, #215 ) ;
#87 = DIRECTION ( 'NONE',  ( 0.0000000000000000000, 1.000000000000000000, 0.0000000000000000000 ) ) ;
#88 = ADVANCED_FACE ( 'NONE', ( #85 ), #229, .T. ) ;
#89 = DIRECTION ( 'NONE',  ( -1.878591173182506011E-30, 1.000000000000000000, -5.380498965533517825E-16 ) ) ;
#90 = APPROVAL_ROLE ( '' ) ;
#91 = ORIENTED_EDGE ( 'NONE', *, *, #226, .F. ) ;
#92 = ADVANCED_FACE ( 'NONE', ( #102, #213 ), #13, .T. ) ;
#93 = DATE_AND_TIME ( #113, #69 ) ;
#94 = EDGE_CURVE ( 'NONE', #206, #206, #123, .T. ) ;
#95 = PERSON_AND_ORGANIZATION ( #84, #65 ) ;
#96 = CIRCLE ( 'NONE', #153, 2.623059892324148379 ) ;
#97 = CYLINDRICAL_SURFACE ( 'NONE', #34, 1.999999999999993561 ) ;
#98 = ORIENTED_EDGE ( 'NONE', *, *, #120, .F. ) ;
#99 = DIRECTION ( 'NONE',  ( -3.491481338843133355E-15, -5.380498965533517825E-16, -1.000000000000000000 ) ) ;
#100 = CIRCLE ( 'NONE', #157, 2.853999999999999648 ) ;
#101 = DIRECTION ( 'NONE',  ( -3.491481338843133355E-15, 9.031770143711729009E-17, -1.000000000000000000 ) ) ;
#102 = FACE_OUTER_BOUND ( 'NONE', #189, .T. ) ;
#103 = APPROVAL ( #45, 'UNSPECIFIED' ) ;
#104 = CC_DESIGN_PERSON_AND_ORGANIZATION_ASSIGNMENT ( #61, #59, ( #39 ) ) ;
#105 =( NAMED_UNIT ( * ) PLANE_ANGLE_UNIT ( ) SI_UNIT ( $, .RADIAN. ) );
#106 = AXIS2_PLACEMENT_3D ( 'NONE', #126, #14, #130 ) ;
#107 = CARTESIAN_POINT ( 'NONE',  ( 2.779219145719134403E-13, 1.999999999999988010, 79.60000000000000853 ) ) ;
#108 = CC_DESIGN_APPROVAL ( #103, ( #151 ) ) ;
#109 = DIRECTION ( 'NONE',  ( -3.491481338843133355E-15, -5.380498965533517825E-16, -1.000000000000000000 ) ) ;
#110 = APPROVAL_ROLE ( '' ) ;
#111 = ADVANCED_FACE ( 'NONE', ( #144 ), #158, .T. ) ;
#112 = LOCAL_TIME ( 11, 4, 11.00000000000000000, #18 ) ;
#113 = CALENDAR_DATE ( 2021, 26, 11 ) ;
#114 = COORDINATED_UNIVERSAL_TIME_OFFSET ( 1, 0, .AHEAD. ) ;
#115 = AXIS2_PLACEMENT_3D ( 'NONE', #67, #161, #8 ) ;
#116 = PERSON_AND_ORGANIZATION ( #84, #65 ) ;
#117 = DIRECTION ( 'NONE',  ( -3.491481338843133355E-15, 9.031770143711729009E-17, -1.000000000000000000 ) ) ;
#118 = CLOSED_SHELL ( 'NONE', ( #185, #217, #58, #145, #197 ) ) ;
#119 = CYLINDRICAL_SURFACE ( 'NONE', #86, 2.853999999999994763 ) ;
#120 = EDGE_CURVE ( 'NONE', #241, #241, #43, .T. ) ;
#121 = CARTESIAN_POINT ( 'NONE',  ( 0.0000000000000000000, 0.0000000000000000000, 0.0000000000000000000 ) ) ;
#122 = ORIENTED_EDGE ( 'NONE', *, *, #12, .F. ) ;
#123 = CIRCLE ( 'NONE', #190, 1.999999999999995337 ) ;
#124 = CC_DESIGN_PERSON_AND_ORGANIZATION_ASSIGNMENT ( #135, #211, ( #218 ) ) ;
#125 = CARTESIAN_POINT ( 'NONE',  ( 0.0000000000000000000, 0.0000000000000000000, 0.0000000000000000000 ) ) ;
#126 = CARTESIAN_POINT ( 'NONE',  ( 4.368781329559389671E-14, 6.732449966960152879E-15, 12.51268703904039903 ) ) ;
#127 = APPROVAL_PERSON_ORGANIZATION ( #95, #162, #110 ) ;
#128 = DIRECTION ( 'NONE',  ( 0.0000000000000000000, 1.000000000000000000, 0.0000000000000000000 ) ) ;
#129 = DIRECTION ( 'NONE',  ( -3.491481338843133355E-15, 9.031770143711729009E-17, -1.000000000000000000 ) ) ;
#130 = DIRECTION ( 'NONE',  ( -2.159416896299640192E-30, 1.000000000000000000, -6.078218205945382858E-16 ) ) ;
#131 = DESIGN_CONTEXT ( 'detailed design', #138, 'design' ) ;
#132 = DIRECTION ( 'NONE',  ( -3.491481338843133355E-15, 9.031770143711729009E-17, -1.000000000000000000 ) ) ;
#133 = PERSON_AND_ORGANIZATION ( #84, #65 ) ;
#134 = AXIS2_PLACEMENT_3D ( 'NONE', #149, #132, #239 ) ;
#135 = PERSON_AND_ORGANIZATION ( #84, #65 ) ;
#136 = ORIENTED_EDGE ( 'NONE', *, *, #94, .T. ) ;
#137 = PERSON_AND_ORGANIZATION ( #84, #65 ) ;
#138 = APPLICATION_CONTEXT ( 'configuration controlled 3d designs of mechanical parts and assemblies' ) ;
#139 = DATE_AND_TIME ( #41, #171 ) ;
#140 = DIRECTION ( 'NONE',  ( 0.0000000000000000000, 1.000000000000000000, 0.0000000000000000000 ) ) ;
#141 = ADVANCED_FACE ( 'NONE', ( #214, #48 ), #119, .T. ) ;
#142 = CIRCLE ( 'NONE', #25, 1.599999999999994982 ) ;
#143 = EDGE_LOOP ( 'NONE', ( #181 ) ) ;
#144 = FACE_OUTER_BOUND ( 'NONE', #42, .T. ) ;
#145 = ADVANCED_FACE ( 'NONE', ( #51, #195 ), #175, .T. ) ;
#146 = DIRECTION ( 'NONE',  ( -1.878591173182506011E-30, 1.000000000000000000, -5.380498965533517825E-16 ) ) ;
#147 = CARTESIAN_POINT ( 'NONE',  ( 4.368781329559389040E-14, -1.130117132168137690E-15, 12.51268703904039725 ) ) ;
#148 = CARTESIAN_POINT ( 'NONE',  ( 1.396592535537253145E-15, 2.853999999999997872, 0.3999999999999999667 ) ) ;
#149 = CARTESIAN_POINT ( 'NONE',  ( 2.779219145719134403E-13, -7.189289034394536528E-15, 79.60000000000000853 ) ) ;
#150 = VERTEX_POINT ( 'NONE', #35 ) ;
#151 = PRODUCT_DEFINITION ( 'UNKNOWN', '', #39, #131 ) ;
#152 = EDGE_LOOP ( 'NONE', ( #3 ) ) ;
#153 = AXIS2_PLACEMENT_3D ( 'NONE', #221, #109, #89 ) ;
#154 = APPROVAL_STATUS ( 'not_yet_approved' ) ;
#155 = CC_DESIGN_PERSON_AND_ORGANIZATION_ASSIGNMENT ( #188, #44, ( #36 ) ) ;
#156 = DATE_AND_TIME ( #210, #112 ) ;
#157 = AXIS2_PLACEMENT_3D ( 'NONE', #147, #101, #232 ) ;
#158 = PLANE ( 'NONE',  #15 ) ;
#159 = ORIENTED_EDGE ( 'NONE', *, *, #166, .T. ) ;
#160 = EDGE_LOOP ( 'NONE', ( #91 ) ) ;
#161 = DIRECTION ( 'NONE',  ( 3.491481338843133355E-15, 5.380498965533517825E-16, 1.000000000000000000 ) ) ;
#162 = APPROVAL ( #154, 'UNSPECIFIED' ) ;
#163 = DIRECTION ( 'NONE',  ( -3.491481338843133355E-15, 9.031770143711729009E-17, -1.000000000000000000 ) ) ;
#164 = FACE_OUTER_BOUND ( 'NONE', #152, .T. ) ;
#165 = CARTESIAN_POINT ( 'NONE',  ( 4.368781329559387778E-14, 2.853999999999998316, 12.51268703904039370 ) ) ;
#166 = EDGE_CURVE ( 'NONE', #242, #242, #38, .T. ) ;
#167 = CARTESIAN_POINT ( 'NONE',  ( 4.885231259955590439E-14, 1.999999999999990452, 13.99185842870425134 ) ) ;
#168 = PERSON_AND_ORGANIZATION ( #84, #65 ) ;
#169 = CALENDAR_DATE ( 2021, 26, 11 ) ;
#170 = EDGE_LOOP ( 'NONE', ( #82 ) ) ;
#171 = LOCAL_TIME ( 11, 4, 11.00000000000000000, #224 ) ;
#172 = CC_DESIGN_APPROVAL ( #162, ( #36 ) ) ;
#173 = APPLICATION_PROTOCOL_DEFINITION ( 'international standard', 'config_control_design', 1994, #138 ) ;
#174 = CALENDAR_DATE ( 2021, 26, 11 ) ;
#175 = CONICAL_SURFACE ( 'NONE', #180, 2.853999999999999648, 0.5235987755982931535 ) ;
#176 = CARTESIAN_POINT ( 'NONE',  ( 4.368781329559387778E-14, 6.732449966960150513E-15, 12.51268703904039370 ) ) ;
#177 = APPROVAL_PERSON_ORGANIZATION ( #133, #78, #90 ) ;
#178 = CARTESIAN_POINT ( 'NONE',  ( 4.368781329559389040E-14, -1.130117132168137690E-15, 12.51268703904039725 ) ) ;
#179 = DIRECTION ( 'NONE',  ( 3.153425691349006731E-31, 1.000000000000000000, 9.031770143711729009E-17 ) ) ;
#180 = AXIS2_PLACEMENT_3D ( 'NONE', #178, #200, #87 ) ;
#181 = ORIENTED_EDGE ( 'NONE', *, *, #166, .F. ) ;
#182 = ORIENTED_EDGE ( 'NONE', *, *, #12, .T. ) ;
#183 = APPLICATION_PROTOCOL_DEFINITION ( 'international standard', 'config_control_design', 1994, #228 ) ;
#184 = CARTESIAN_POINT ( 'NONE',  ( 6.842277657836020854E-46, 2.623059892324148379, 0.0000000000000000000 ) ) ;
#185 = ADVANCED_FACE ( 'NONE', ( #164 ), #70, .T. ) ;
#186 = FACE_OUTER_BOUND ( 'NONE', #46, .T. ) ;
#187 = PERSON_AND_ORGANIZATION_ROLE ( 'design_supplier' ) ;
#188 = PERSON_AND_ORGANIZATION ( #84, #65 ) ;
#189 = EDGE_LOOP ( 'NONE', ( #182 ) ) ;
#190 = AXIS2_PLACEMENT_3D ( 'NONE', #79, #117, #194 ) ;
#191 = APPROVAL_PERSON_ORGANIZATION ( #116, #103, #227 ) ;
#192 = DIRECTION ( 'NONE',  ( 1.000000000000000000, 0.0000000000000000000, 0.0000000000000000000 ) ) ;
#193 = PRODUCT_DEFINITION_SHAPE ( 'NONE', 'NONE',  #151 ) ;
#194 = DIRECTION ( 'NONE',  ( 0.0000000000000000000, 1.000000000000000000, 0.0000000000000000000 ) ) ;
#195 = FACE_OUTER_BOUND ( 'NONE', #1, .T. ) ;
#196 = CC_DESIGN_SECURITY_CLASSIFICATION ( #36, ( #39 ) ) ;
#197 = ADVANCED_FACE ( 'NONE', ( #186 ), #205, .T. ) ;
#198 = ORIENTED_EDGE ( 'NONE', *, *, #62, .T. ) ;
#199 = EDGE_LOOP ( 'NONE', ( #230 ) ) ;
#200 = DIRECTION ( 'NONE',  ( -3.491481338843133355E-15, 9.031770143711729009E-17, -1.000000000000000000 ) ) ;
#201 =( NAMED_UNIT ( * ) SI_UNIT ( $, .STERADIAN. ) SOLID_ANGLE_UNIT ( ) );
#202 = DIRECTION ( 'NONE',  ( -3.491481338843133355E-15, 9.031770143711729009E-17, -1.000000000000000000 ) ) ;
#203 = AXIS2_PLACEMENT_3D ( 'NONE', #176, #27, #83 ) ;
#204 = VERTEX_POINT ( 'NONE', #148 ) ;
#205 = PLANE ( 'NONE',  #68 ) ;
#206 = VERTEX_POINT ( 'NONE', #107 ) ;
#207 = COORDINATED_UNIVERSAL_TIME_OFFSET ( 1, 0, .AHEAD. ) ;
#208 = EDGE_LOOP ( 'NONE', ( #122 ) ) ;
#209 = DATE_TIME_ROLE ( 'creation_date' ) ;
#210 = CALENDAR_DATE ( 2021, 26, 11 ) ;
#211 = PERSON_AND_ORGANIZATION_ROLE ( 'design_owner' ) ;
#212 = DIRECTION ( 'NONE',  ( -1.889489784262180833E-30, 1.000000000000000000, -5.318440930202197798E-16 ) ) ;
#213 = FACE_BOUND ( 'NONE', #160, .T. ) ;
#214 = FACE_OUTER_BOUND ( 'NONE', #223, .T. ) ;
#215 = DIRECTION ( 'NONE',  ( -1.878591173182505661E-30, 1.000000000000000000, -5.380498965533516839E-16 ) ) ;
#216 = CLOSED_SHELL ( 'NONE', ( #88, #141, #92, #111 ) ) ;
#217 = ADVANCED_FACE ( 'NONE', ( #222, #220 ), #237, .T. ) ;
#218 = PRODUCT ( '321474', '321474', '', ( #6 ) ) ;
#219 = CARTESIAN_POINT ( 'NONE',  ( 0.0000000000000000000, 0.0000000000000000000, 0.0000000000000000000 ) ) ;
#220 = FACE_OUTER_BOUND ( 'NONE', #199, .T. ) ;
#221 = CARTESIAN_POINT ( 'NONE',  ( 4.927657160449200248E-30, 7.593697826575137657E-31, 1.411337103718254168E-15 ) ) ;
#222 = FACE_BOUND ( 'NONE', #170, .T. ) ;
#223 = EDGE_LOOP ( 'NONE', ( #159 ) ) ;
#224 = COORDINATED_UNIVERSAL_TIME_OFFSET ( 1, 0, .AHEAD. ) ;
#225 = SHAPE_DEFINITION_REPRESENTATION ( #193, #63 ) ;
#226 = EDGE_CURVE ( 'NONE', #16, #16, #96, .T. ) ;
#227 = APPROVAL_ROLE ( '' ) ;
#228 = APPLICATION_CONTEXT ( 'configuration controlled 3d designs of mechanical parts and assemblies' ) ;
#229 = PLANE ( 'NONE',  #203 ) ;
#230 = ORIENTED_EDGE ( 'NONE', *, *, #94, .F. ) ;
#231 = AXIS2_PLACEMENT_3D ( 'NONE', #28, #99, #212 ) ;
#232 = DIRECTION ( 'NONE',  ( 0.0000000000000000000, 1.000000000000000000, 0.0000000000000000000 ) ) ;
#233 = LOCAL_TIME ( 11, 4, 11.00000000000000000, #114 ) ;
#234 = EDGE_LOOP ( 'NONE', ( #136 ) ) ;
#235 = EDGE_CURVE ( 'NONE', #73, #73, #142, .T. ) ;
#236 = EDGE_LOOP ( 'NONE', ( #98 ) ) ;
#237 = CONICAL_SURFACE ( 'NONE', #134, 1.999999999999995337, 0.7853981633974516097 ) ;
#238 = CC_DESIGN_PERSON_AND_ORGANIZATION_ASSIGNMENT ( #168, #187, ( #39 ) ) ;
#239 = DIRECTION ( 'NONE',  ( 0.0000000000000000000, 1.000000000000000000, 0.0000000000000000000 ) ) ;
#240 = CARTESIAN_POINT ( 'NONE',  ( 2.793185071074506684E-13, -7.225416114969383207E-15, 80.00000000000000000 ) ) ;
#241 = VERTEX_POINT ( 'NONE', #167 ) ;
#242 = VERTEX_POINT ( 'NONE', #32 ) ;
#243 =( LENGTH_UNIT ( ) NAMED_UNIT ( * ) SI_UNIT ( .MILLI., .METRE. ) );
ENDSEC;
END-ISO-10303-21;
