ISO-10303-21;
HEADER;
FILE_DESCRIPTION (( 'STEP AP203' ),
    '1' );
FILE_NAME ('321473.step',
    '2021-11-26T10:04:11',
    ( '' ),
    ( '' ),
    'SwSTEP 2.0',
    'SolidWorks 2019',
    '' );
FILE_SCHEMA (( 'CONFIG_CONTROL_DESIGN' ));
ENDSEC;

DATA;
#1 = CARTESIAN_POINT ( 'NONE',  ( 6.842277657836020854E-46, 2.618059892324148485, 0.0000000000000000000 ) ) ;
#2 = DATE_AND_TIME ( #176, #57 ) ;
#3 = AXIS2_PLACEMENT_3D ( 'NONE', #19, #205, #154 ) ;
#4 = CYLINDRICAL_SURFACE ( 'NONE', #135, 2.848999999999994870 ) ;
#5 = CALENDAR_DATE ( 2021, 26, 11 ) ;
#6 = APPROVAL_PERSON_ORGANIZATION ( #81, #68, #101 ) ;
#7 = DIRECTION ( 'NONE',  ( 3.153425691349006731E-31, 1.000000000000000000, 9.031770143711729009E-17 ) ) ;
#8 = SECURITY_CLASSIFICATION_LEVEL ( 'unclassified' ) ;
#9 = DIRECTION ( 'NONE',  ( 0.0000000000000000000, 1.000000000000000000, 0.0000000000000000000 ) ) ;
#10 = AXIS2_PLACEMENT_3D ( 'NONE', #53, #74, #217 ) ;
#11 = ORIENTED_EDGE ( 'NONE', *, *, #97, .T. ) ;
#12 = SHAPE_DEFINITION_REPRESENTATION ( #20, #219 ) ;
#13 = APPLICATION_CONTEXT ( 'configuration controlled 3d designs of mechanical parts and assemblies' ) ;
#14 = DATE_AND_TIME ( #72, #228 ) ;
#15 = ADVANCED_FACE ( 'NONE', ( #51, #21 ), #155, .T. ) ;
#16 = EDGE_LOOP ( 'NONE', ( #148 ) ) ;
#17 = CC_DESIGN_PERSON_AND_ORGANIZATION_ASSIGNMENT ( #165, #145, ( #183 ) ) ;
#18 = DIRECTION ( 'NONE',  ( 0.0000000000000000000, 1.000000000000000000, 0.0000000000000000000 ) ) ;
#19 = CARTESIAN_POINT ( 'NONE',  ( 2.793185071074506684E-13, -7.225416114969383207E-15, 80.00000000000000000 ) ) ;
#20 = PRODUCT_DEFINITION_SHAPE ( 'NONE', 'NONE',  #113 ) ;
#21 = FACE_OUTER_BOUND ( 'NONE', #111, .T. ) ;
#22 = FACE_OUTER_BOUND ( 'NONE', #16, .T. ) ;
#23 = PERSON_AND_ORGANIZATION ( #171, #196 ) ;
#24 = CC_DESIGN_PERSON_AND_ORGANIZATION_ASSIGNMENT ( #84, #161, ( #113 ) ) ;
#25 =( NAMED_UNIT ( * ) PLANE_ANGLE_UNIT ( ) SI_UNIT ( $, .RADIAN. ) );
#26 = APPROVAL_ROLE ( '' ) ;
#27 = PRODUCT_RELATED_PRODUCT_CATEGORY ( 'detail', '', ( #222 ) ) ;
#28 =( LENGTH_UNIT ( ) NAMED_UNIT ( * ) SI_UNIT ( .MILLI., .METRE. ) );
#29 = CIRCLE ( 'NONE', #77, 2.848999999999991761 ) ;
#30 = DIRECTION ( 'NONE',  ( -1.876700399486370870E-30, 1.000000000000000000, -5.375083574435475669E-16 ) ) ;
#31 = CC_DESIGN_DATE_AND_TIME_ASSIGNMENT ( #49, #191, ( #183 ) ) ;
#32 = FACE_OUTER_BOUND ( 'NONE', #170, .T. ) ;
#33 = CARTESIAN_POINT ( 'NONE',  ( 4.371805041095666544E-14, -1.130899306406697578E-15, 12.52134729307824301 ) ) ;
#34 = DESIGN_CONTEXT ( 'detailed design', #92, 'design' ) ;
#35 = EDGE_LOOP ( 'NONE', ( #56 ) ) ;
#36 = CARTESIAN_POINT ( 'NONE',  ( 4.371805041095666544E-14, -1.130899306406697578E-15, 12.52134729307824301 ) ) ;
#37 = AXIS2_PLACEMENT_3D ( 'NONE', #36, #187, #18 ) ;
#38 = CC_DESIGN_APPROVAL ( #68, ( #113 ) ) ;
#39 = DIRECTION ( 'NONE',  ( 3.491481338843133355E-15, 5.375083574435476655E-16, 1.000000000000000000 ) ) ;
#40 = CALENDAR_DATE ( 2021, 26, 11 ) ;
#41 = CIRCLE ( 'NONE', #160, 1.999999999999991784 ) ;
#42 = APPROVAL_PERSON_ORGANIZATION ( #210, #239, #60 ) ;
#43 = PRODUCT_DEFINITION_FORMATION_WITH_SPECIFIED_SOURCE ( 'ANY', '', #222, .NOT_KNOWN. ) ;
#44 = CARTESIAN_POINT ( 'NONE',  ( 4.885231259955590439E-14, 1.999999999999990452, 13.99185842870425134 ) ) ;
#45 = PERSON_AND_ORGANIZATION_ROLE ( 'design_owner' ) ;
#46 = FACE_OUTER_BOUND ( 'NONE', #168, .T. ) ;
#47 = DATE_TIME_ROLE ( 'creation_date' ) ;
#48 = DIRECTION ( 'NONE',  ( -1.892805842149618633E-30, 1.000000000000000000, -5.327774803368575217E-16 ) ) ;
#49 = DATE_AND_TIME ( #40, #78 ) ;
#50 = CC_DESIGN_SECURITY_CLASSIFICATION ( #183, ( #43 ) ) ;
#51 = FACE_OUTER_BOUND ( 'NONE', #216, .T. ) ;
#52 = AXIS2_PLACEMENT_3D ( 'NONE', #79, #208, #7 ) ;
#53 = CARTESIAN_POINT ( 'NONE',  ( 2.779219145719134403E-13, -7.189289034394536528E-15, 79.60000000000000853 ) ) ;
#54 = AXIS2_PLACEMENT_3D ( 'NONE', #242, #163, #206 ) ;
#55 = FACE_OUTER_BOUND ( 'NONE', #109, .T. ) ;
#56 = ORIENTED_EDGE ( 'NONE', *, *, #173, .T. ) ;
#57 = LOCAL_TIME ( 11, 4, 11.00000000000000000, #104 ) ;
#58 = ADVANCED_FACE ( 'NONE', ( #136, #98 ), #220, .T. ) ;
#59 = CC_DESIGN_APPROVAL ( #115, ( #183 ) ) ;
#60 = APPROVAL_ROLE ( '' ) ;
#61 =( NAMED_UNIT ( * ) SI_UNIT ( $, .STERADIAN. ) SOLID_ANGLE_UNIT ( ) );
#62 =( GEOMETRIC_REPRESENTATION_CONTEXT ( 3 ) GLOBAL_UNCERTAINTY_ASSIGNED_CONTEXT ( ( #139 ) ) GLOBAL_UNIT_ASSIGNED_CONTEXT ( ( #28, #25, #61 ) ) REPRESENTATION_CONTEXT ( 'NONE', 'WORKASPACE' ) );
#63 = EDGE_CURVE ( 'NONE', #142, #142, #223, .T. ) ;
#64 = DIRECTION ( 'NONE',  ( -1.876700399486371220E-30, 1.000000000000000000, -5.375083574435476655E-16 ) ) ;
#65 = FACE_BOUND ( 'NONE', #75, .T. ) ;
#66 = CALENDAR_DATE ( 2021, 26, 11 ) ;
#67 = DIRECTION ( 'NONE',  ( -3.491481338843133355E-15, -5.375083574435476655E-16, -1.000000000000000000 ) ) ;
#68 = APPROVAL ( #233, 'UNSPECIFIED' ) ;
#69 = EDGE_LOOP ( 'NONE', ( #200 ) ) ;
#70 = CONICAL_SURFACE ( 'NONE', #93, 1.999999999999995337, 0.7853981633974516097 ) ;
#71 = ORIENTED_EDGE ( 'NONE', *, *, #173, .F. ) ;
#72 = CALENDAR_DATE ( 2021, 26, 11 ) ;
#73 = CC_DESIGN_APPROVAL ( #239, ( #43 ) ) ;
#74 = DIRECTION ( 'NONE',  ( -3.491481338843133355E-15, 9.031770143711729009E-17, -1.000000000000000000 ) ) ;
#75 = EDGE_LOOP ( 'NONE', ( #130 ) ) ;
#76 = APPROVAL_DATE_TIME ( #14, #115 ) ;
#77 = AXIS2_PLACEMENT_3D ( 'NONE', #226, #143, #100 ) ;
#78 = LOCAL_TIME ( 11, 4, 11.00000000000000000, #212 ) ;
#79 = CARTESIAN_POINT ( 'NONE',  ( 4.371805041095667175E-14, 2.848999999999998867, 12.52134729307824479 ) ) ;
#80 = APPLICATION_PROTOCOL_DEFINITION ( 'international standard', 'config_control_design', 1994, #13 ) ;
#81 = PERSON_AND_ORGANIZATION ( #171, #196 ) ;
#82 = VERTEX_POINT ( 'NONE', #86 ) ;
#83 = CONICAL_SURFACE ( 'NONE', #153, 2.848999999999999755, 0.5235987755982934866 ) ;
#84 = PERSON_AND_ORGANIZATION ( #171, #196 ) ;
#85 = PERSON_AND_ORGANIZATION ( #171, #196 ) ;
#86 = CARTESIAN_POINT ( 'NONE',  ( 2.779219145719134403E-13, 1.999999999999988010, 79.60000000000000853 ) ) ;
#87 = VERTEX_POINT ( 'NONE', #1 ) ;
#88 = CLOSED_SHELL ( 'NONE', ( #107, #188, #58, #157 ) ) ;
#89 = EDGE_LOOP ( 'NONE', ( #94 ) ) ;
#90 = CC_DESIGN_PERSON_AND_ORGANIZATION_ASSIGNMENT ( #162, #230, ( #43 ) ) ;
#91 = ORIENTED_EDGE ( 'NONE', *, *, #134, .F. ) ;
#92 = APPLICATION_CONTEXT ( 'configuration controlled 3d designs of mechanical parts and assemblies' ) ;
#93 = AXIS2_PLACEMENT_3D ( 'NONE', #193, #147, #9 ) ;
#94 = ORIENTED_EDGE ( 'NONE', *, *, #238, .T. ) ;
#95 = FACE_OUTER_BOUND ( 'NONE', #237, .T. ) ;
#96 = CARTESIAN_POINT ( 'NONE',  ( 0.0000000000000000000, 0.0000000000000000000, 0.0000000000000000000 ) ) ;
#97 = EDGE_CURVE ( 'NONE', #82, #82, #126, .T. ) ;
#98 = FACE_BOUND ( 'NONE', #150, .T. ) ;
#99 = PLANE ( 'NONE',  #3 ) ;
#100 = DIRECTION ( 'NONE',  ( -2.163206676742426200E-30, 1.000000000000000000, -6.088885489564099768E-16 ) ) ;
#101 = APPROVAL_ROLE ( '' ) ;
#102 = ADVANCED_FACE ( 'NONE', ( #198, #55 ), #83, .T. ) ;
#103 = AXIS2_PLACEMENT_3D ( 'NONE', #127, #146, #234 ) ;
#104 = COORDINATED_UNIVERSAL_TIME_OFFSET ( 1, 0, .AHEAD. ) ;
#105 = CARTESIAN_POINT ( 'NONE',  ( 2.793185071074506684E-13, 1.599999999999987876, 80.00000000000000000 ) ) ;
#106 = COORDINATED_UNIVERSAL_TIME_OFFSET ( 1, 0, .AHEAD. ) ;
#107 = ADVANCED_FACE ( 'NONE', ( #138 ), #172, .T. ) ;
#108 = VERTEX_POINT ( 'NONE', #44 ) ;
#109 = EDGE_LOOP ( 'NONE', ( #91 ) ) ;
#110 = EDGE_LOOP ( 'NONE', ( #218 ) ) ;
#111 = EDGE_LOOP ( 'NONE', ( #214 ) ) ;
#112 = COORDINATED_UNIVERSAL_TIME_OFFSET ( 1, 0, .AHEAD. ) ;
#113 = PRODUCT_DEFINITION ( 'UNKNOWN', '', #43, #34 ) ;
#114 = MANIFOLD_SOLID_BREP ( 'Corps-Déplacer/Copier1[1]', #207 ) ;
#115 = APPROVAL ( #192, 'UNSPECIFIED' ) ;
#116 = AXIS2_PLACEMENT_3D ( 'NONE', #197, #195, #229 ) ;
#117 = AXIS2_PLACEMENT_3D ( 'NONE', #96, #202, #241 ) ;
#118 = AXIS2_PLACEMENT_3D ( 'NONE', #194, #227, #124 ) ;
#119 = DIRECTION ( 'NONE',  ( 1.876700399486371220E-30, -1.000000000000000000, 5.375083574435476655E-16 ) ) ;
#120 = MECHANICAL_CONTEXT ( 'NONE', #13, 'mechanical' ) ;
#121 = EDGE_CURVE ( 'NONE', #108, #108, #41, .T. ) ;
#122 = LOCAL_TIME ( 11, 4, 11.00000000000000000, #106 ) ;
#123 = VERTEX_POINT ( 'NONE', #166 ) ;
#124 = DIRECTION ( 'NONE',  ( 1.000000000000000000, 0.0000000000000000000, 0.0000000000000000000 ) ) ;
#125 = FACE_OUTER_BOUND ( 'NONE', #89, .T. ) ;
#126 = CIRCLE ( 'NONE', #10, 1.999999999999995337 ) ;
#127 = CARTESIAN_POINT ( 'NONE',  ( 2.793185071074506684E-13, -7.225416114969383207E-15, 80.00000000000000000 ) ) ;
#128 = CARTESIAN_POINT ( 'NONE',  ( 4.371805041095666544E-14, 2.848999999999998867, 12.52134729307824301 ) ) ;
#129 = APPROVAL_PERSON_ORGANIZATION ( #23, #115, #26 ) ;
#130 = ORIENTED_EDGE ( 'NONE', *, *, #63, .T. ) ;
#131 = ORIENTED_EDGE ( 'NONE', *, *, #97, .F. ) ;
#132 = ADVANCED_FACE ( 'NONE', ( #22 ), #99, .T. ) ;
#133 = ORIENTED_EDGE ( 'NONE', *, *, #134, .T. ) ;
#134 = EDGE_CURVE ( 'NONE', #164, #164, #215, .T. ) ;
#135 = AXIS2_PLACEMENT_3D ( 'NONE', #231, #209, #30 ) ;
#136 = FACE_OUTER_BOUND ( 'NONE', #35, .T. ) ;
#137 = AXIS2_PLACEMENT_3D ( 'NONE', #179, #67, #64 ) ;
#138 = FACE_OUTER_BOUND ( 'NONE', #110, .T. ) ;
#139 = UNCERTAINTY_MEASURE_WITH_UNIT (LENGTH_MEASURE( 1.000000000000000082E-05 ), #28, 'distance_accuracy_value', 'NONE');
#140 = PERSON_AND_ORGANIZATION_ROLE ( 'creator' ) ;
#141 = PERSON_AND_ORGANIZATION ( #171, #196 ) ;
#142 = VERTEX_POINT ( 'NONE', #105 ) ;
#143 = DIRECTION ( 'NONE',  ( -3.491481338843133355E-15, -5.375083574435476655E-16, -1.000000000000000000 ) ) ;
#144 = DATE_AND_TIME ( #66, #122 ) ;
#145 = PERSON_AND_ORGANIZATION_ROLE ( 'classification_officer' ) ;
#146 = DIRECTION ( 'NONE',  ( -3.491481338843133355E-15, 9.031770143711729009E-17, -1.000000000000000000 ) ) ;
#147 = DIRECTION ( 'NONE',  ( -3.491481338843133355E-15, 9.031770143711729009E-17, -1.000000000000000000 ) ) ;
#148 = ORIENTED_EDGE ( 'NONE', *, *, #63, .F. ) ;
#149 = ADVANCED_FACE ( 'NONE', ( #95 ), #240, .T. ) ;
#150 = EDGE_LOOP ( 'NONE', ( #152 ) ) ;
#151 = EDGE_CURVE ( 'NONE', #87, #87, #236, .T. ) ;
#152 = ORIENTED_EDGE ( 'NONE', *, *, #151, .F. ) ;
#153 = AXIS2_PLACEMENT_3D ( 'NONE', #33, #184, #169 ) ;
#154 = DIRECTION ( 'NONE',  ( -3.153425691349006731E-31, -1.000000000000000000, -9.031770143711729009E-17 ) ) ;
#155 = CYLINDRICAL_SURFACE ( 'NONE', #117, 1.999999999999993561 ) ;
#156 = APPLICATION_PROTOCOL_DEFINITION ( 'international standard', 'config_control_design', 1994, #92 ) ;
#157 = ADVANCED_FACE ( 'NONE', ( #175 ), #181, .T. ) ;
#158 = APPROVAL_DATE_TIME ( #2, #68 ) ;
#159 = DIRECTION ( 'NONE',  ( -3.491481338843133355E-15, -5.375083574435476655E-16, -1.000000000000000000 ) ) ;
#160 = AXIS2_PLACEMENT_3D ( 'NONE', #189, #201, #243 ) ;
#161 = PERSON_AND_ORGANIZATION_ROLE ( 'creator' ) ;
#162 = PERSON_AND_ORGANIZATION ( #171, #196 ) ;
#163 = DIRECTION ( 'NONE',  ( 3.491481338843133355E-15, 5.375083574435476655E-16, 1.000000000000000000 ) ) ;
#164 = VERTEX_POINT ( 'NONE', #128 ) ;
#165 = PERSON_AND_ORGANIZATION ( #171, #196 ) ;
#166 = CARTESIAN_POINT ( 'NONE',  ( 1.396592535537253145E-15, 2.848999999999998423, 0.3999999999999999667 ) ) ;
#167 = AXIS2_PLACEMENT_3D ( 'NONE', #203, #39, #119 ) ;
#168 = EDGE_LOOP ( 'NONE', ( #131 ) ) ;
#169 = DIRECTION ( 'NONE',  ( 0.0000000000000000000, 1.000000000000000000, 0.0000000000000000000 ) ) ;
#170 = EDGE_LOOP ( 'NONE', ( #71 ) ) ;
#171 = PERSON ( 'UNSPECIFIED', 'UNSPECIFIED', 'UNSPECIFIED', ('UNSPECIFIED'), ('UNSPECIFIED'), ('UNSPECIFIED') ) ;
#172 = PLANE ( 'NONE',  #167 ) ;
#173 = EDGE_CURVE ( 'NONE', #123, #123, #182, .T. ) ;
#174 = VERTEX_POINT ( 'NONE', #213 ) ;
#175 = FACE_OUTER_BOUND ( 'NONE', #185, .T. ) ;
#176 = CALENDAR_DATE ( 2021, 26, 11 ) ;
#177 = APPROVAL_STATUS ( 'not_yet_approved' ) ;
#178 = LOCAL_TIME ( 11, 4, 11.00000000000000000, #224 ) ;
#179 = CARTESIAN_POINT ( 'NONE',  ( 4.913314045803976259E-30, 7.563973872589729089E-31, 1.407229072411984384E-15 ) ) ;
#180 = DATE_AND_TIME ( #5, #178 ) ;
#181 = PLANE ( 'NONE',  #116 ) ;
#182 = CIRCLE ( 'NONE', #235, 2.848999999999998423 ) ;
#183 = SECURITY_CLASSIFICATION ( '', '', #8 ) ;
#184 = DIRECTION ( 'NONE',  ( -3.491481338843133355E-15, 9.031770143711729009E-17, -1.000000000000000000 ) ) ;
#185 = EDGE_LOOP ( 'NONE', ( #186 ) ) ;
#186 = ORIENTED_EDGE ( 'NONE', *, *, #151, .T. ) ;
#187 = DIRECTION ( 'NONE',  ( -3.491481338843133355E-15, 9.031770143711729009E-17, -1.000000000000000000 ) ) ;
#188 = ADVANCED_FACE ( 'NONE', ( #125, #32 ), #4, .T. ) ;
#189 = CARTESIAN_POINT ( 'NONE',  ( 4.885231259955590439E-14, -1.263712492114123682E-15, 13.99185842870425134 ) ) ;
#190 = MANIFOLD_SOLID_BREP ( 'Corps-Déplacer/Copier1[2]', #88 ) ;
#191 = DATE_TIME_ROLE ( 'classification_date' ) ;
#192 = APPROVAL_STATUS ( 'not_yet_approved' ) ;
#193 = CARTESIAN_POINT ( 'NONE',  ( 2.779219145719134403E-13, -7.189289034394536528E-15, 79.60000000000000853 ) ) ;
#194 = CARTESIAN_POINT ( 'NONE',  ( 0.0000000000000000000, 0.0000000000000000000, 0.0000000000000000000 ) ) ;
#195 = DIRECTION ( 'NONE',  ( -3.491481338843133355E-15, -5.375083574435476655E-16, -1.000000000000000000 ) ) ;
#196 = ORGANIZATION ( 'UNSPECIFIED', 'UNSPECIFIED', '' ) ;
#197 = CARTESIAN_POINT ( 'NONE',  ( -2.456657022901988130E-30, 2.618059892324148485, -7.036145362059921918E-16 ) ) ;
#198 = FACE_BOUND ( 'NONE', #69, .T. ) ;
#199 = CC_DESIGN_PERSON_AND_ORGANIZATION_ASSIGNMENT ( #141, #45, ( #222 ) ) ;
#200 = ORIENTED_EDGE ( 'NONE', *, *, #121, .T. ) ;
#201 = DIRECTION ( 'NONE',  ( -3.491481338843133355E-15, 9.031770143711729009E-17, -1.000000000000000000 ) ) ;
#202 = DIRECTION ( 'NONE',  ( -3.491481338843133355E-15, 9.031770143711729009E-17, -1.000000000000000000 ) ) ;
#203 = CARTESIAN_POINT ( 'NONE',  ( 4.371805041095667175E-14, 6.730328816482700424E-15, 12.52134729307824479 ) ) ;
#204 = CC_DESIGN_PERSON_AND_ORGANIZATION_ASSIGNMENT ( #85, #140, ( #43 ) ) ;
#205 = DIRECTION ( 'NONE',  ( 3.491481338843133355E-15, -9.031770143711729009E-17, 1.000000000000000000 ) ) ;
#206 = DIRECTION ( 'NONE',  ( 1.876700399486371570E-30, -1.000000000000000000, 5.375083574435476655E-16 ) ) ;
#207 = CLOSED_SHELL ( 'NONE', ( #132, #232, #15, #102, #149 ) ) ;
#208 = DIRECTION ( 'NONE',  ( -3.491481338843133355E-15, 9.031770143711729009E-17, -1.000000000000000000 ) ) ;
#209 = DIRECTION ( 'NONE',  ( -3.491481338843133355E-15, -5.375083574435476655E-16, -1.000000000000000000 ) ) ;
#210 = PERSON_AND_ORGANIZATION ( #171, #196 ) ;
#211 = CARTESIAN_POINT ( 'NONE',  ( 1.396592535537258470E-15, 2.150033429774198600E-16, 0.4000000000000014655 ) ) ;
#212 = COORDINATED_UNIVERSAL_TIME_OFFSET ( 1, 0, .AHEAD. ) ;
#213 = CARTESIAN_POINT ( 'NONE',  ( 4.371805041095666544E-14, 2.848999999999998867, 12.52134729307824301 ) ) ;
#214 = ORIENTED_EDGE ( 'NONE', *, *, #121, .F. ) ;
#215 = CIRCLE ( 'NONE', #37, 2.848999999999999755 ) ;
#216 = EDGE_LOOP ( 'NONE', ( #11 ) ) ;
#217 = DIRECTION ( 'NONE',  ( 0.0000000000000000000, 1.000000000000000000, 0.0000000000000000000 ) ) ;
#218 = ORIENTED_EDGE ( 'NONE', *, *, #238, .F. ) ;
#219 = ADVANCED_BREP_SHAPE_REPRESENTATION ( '321473', ( #114, #190, #118 ), #62 ) ;
#220 = CONICAL_SURFACE ( 'NONE', #54, 2.618059892324148485, 0.5235987755982978165 ) ;
#221 = CC_DESIGN_DATE_AND_TIME_ASSIGNMENT ( #144, #47, ( #113 ) ) ;
#222 = PRODUCT ( '321473', '321473', '', ( #120 ) ) ;
#223 = CIRCLE ( 'NONE', #103, 1.599999999999994982 ) ;
#224 = COORDINATED_UNIVERSAL_TIME_OFFSET ( 1, 0, .AHEAD. ) ;
#225 = APPROVAL_DATE_TIME ( #180, #239 ) ;
#226 = CARTESIAN_POINT ( 'NONE',  ( 4.371805041095667175E-14, 6.730328816482699635E-15, 12.52134729307824479 ) ) ;
#227 = DIRECTION ( 'NONE',  ( 0.0000000000000000000, 0.0000000000000000000, 1.000000000000000000 ) ) ;
#228 = LOCAL_TIME ( 11, 4, 11.00000000000000000, #112 ) ;
#229 = DIRECTION ( 'NONE',  ( -1.876700399486371220E-30, 1.000000000000000000, -5.375083574435476655E-16 ) ) ;
#230 = PERSON_AND_ORGANIZATION_ROLE ( 'design_supplier' ) ;
#231 = CARTESIAN_POINT ( 'NONE',  ( 0.0000000000000000000, 0.0000000000000000000, 0.0000000000000000000 ) ) ;
#232 = ADVANCED_FACE ( 'NONE', ( #65, #46 ), #70, .T. ) ;
#233 = APPROVAL_STATUS ( 'not_yet_approved' ) ;
#234 = DIRECTION ( 'NONE',  ( 0.0000000000000000000, 1.000000000000000000, 0.0000000000000000000 ) ) ;
#235 = AXIS2_PLACEMENT_3D ( 'NONE', #211, #159, #48 ) ;
#236 = CIRCLE ( 'NONE', #137, 2.618059892324148485 ) ;
#237 = EDGE_LOOP ( 'NONE', ( #133 ) ) ;
#238 = EDGE_CURVE ( 'NONE', #174, #174, #29, .T. ) ;
#239 = APPROVAL ( #177, 'UNSPECIFIED' ) ;
#240 = PLANE ( 'NONE',  #52 ) ;
#241 = DIRECTION ( 'NONE',  ( 3.153425691349006731E-31, 1.000000000000000000, 9.031770143711729009E-17 ) ) ;
#242 = CARTESIAN_POINT ( 'NONE',  ( 4.913314045803976259E-30, 7.563973872589729089E-31, 1.407229072411984384E-15 ) ) ;
#243 = DIRECTION ( 'NONE',  ( 0.0000000000000000000, 1.000000000000000000, 0.0000000000000000000 ) ) ;
ENDSEC;
END-ISO-10303-21;
