ISO-10303-21;
HEADER;
FILE_DESCRIPTION (( 'STEP AP203' ),
    '1' );
FILE_NAME ('321472.step',
    '2021-11-26T10:04:10',
    ( '' ),
    ( '' ),
    'SwSTEP 2.0',
    'SolidWorks 2019',
    '' );
FILE_SCHEMA (( 'CONFIG_CONTROL_DESIGN' ));
ENDSEC;

DATA;
#1 = VERTEX_POINT ( 'NONE', #174 ) ;
#2 = VERTEX_POINT ( 'NONE', #122 ) ;
#3 = ORGANIZATION ( 'UNSPECIFIED', 'UNSPECIFIED', '' ) ;
#4 = SECURITY_CLASSIFICATION ( '', '', #187 ) ;
#5 = CARTESIAN_POINT ( 'NONE',  ( 2.793185071074506684E-13, 1.599999999999987876, 80.00000000000000000 ) ) ;
#6 = DIRECTION ( 'NONE',  ( -3.491481338843133355E-15, 9.031770143711729009E-17, -1.000000000000000000 ) ) ;
#7 = ORIENTED_EDGE ( 'NONE', *, *, #197, .F. ) ;
#8 = ORIENTED_EDGE ( 'NONE', *, *, #184, .T. ) ;
#9 = EDGE_LOOP ( 'NONE', ( #72 ) ) ;
#10 = CALENDAR_DATE ( 2021, 26, 11 ) ;
#11 = EDGE_LOOP ( 'NONE', ( #124 ) ) ;
#12 = AXIS2_PLACEMENT_3D ( 'NONE', #190, #17, #21 ) ;
#13 = APPROVAL_STATUS ( 'not_yet_approved' ) ;
#14 = EDGE_LOOP ( 'NONE', ( #85 ) ) ;
#15 = APPLICATION_CONTEXT ( 'configuration controlled 3d designs of mechanical parts and assemblies' ) ;
#16 = APPROVAL_ROLE ( '' ) ;
#17 = DIRECTION ( 'NONE',  ( -3.491481338843133355E-15, 9.031770143711729009E-17, -1.000000000000000000 ) ) ;
#18 = FACE_BOUND ( 'NONE', #9, .T. ) ;
#19 = PERSON_AND_ORGANIZATION_ROLE ( 'classification_officer' ) ;
#20 = DIRECTION ( 'NONE',  ( -1.874812239448765053E-30, 1.000000000000000000, -5.369675669152981418E-16 ) ) ;
#21 = DIRECTION ( 'NONE',  ( 0.0000000000000000000, 1.000000000000000000, 0.0000000000000000000 ) ) ;
#22 = CLOSED_SHELL ( 'NONE', ( #205, #237, #119, #34 ) ) ;
#23 = CIRCLE ( 'NONE', #12, 2.843999999999999417 ) ;
#24 = CARTESIAN_POINT ( 'NONE',  ( 0.0000000000000000000, 0.0000000000000000000, 0.0000000000000000000 ) ) ;
#25 = MANIFOLD_SOLID_BREP ( 'Corps-Déplacer/Copier1[2]', #22 ) ;
#26 = CC_DESIGN_APPROVAL ( #161, ( #4 ) ) ;
#27 = FACE_OUTER_BOUND ( 'NONE', #199, .T. ) ;
#28 = CC_DESIGN_PERSON_AND_ORGANIZATION_ASSIGNMENT ( #182, #19, ( #4 ) ) ;
#29 = CIRCLE ( 'NONE', #35, 1.599999999999994982 ) ;
#30 = AXIS2_PLACEMENT_3D ( 'NONE', #120, #78, #83 ) ;
#31 = DIRECTION ( 'NONE',  ( -3.491481338843133355E-15, -5.369675669152981418E-16, -1.000000000000000000 ) ) ;
#32 = PRODUCT ( '321472', '321472', '', ( #37 ) ) ;
#33 = FACE_OUTER_BOUND ( 'NONE', #181, .T. ) ;
#34 = ADVANCED_FACE ( 'NONE', ( #146 ), #96, .T. ) ;
#35 = AXIS2_PLACEMENT_3D ( 'NONE', #180, #164, #134 ) ;
#36 = ORIENTED_EDGE ( 'NONE', *, *, #202, .F. ) ;
#37 = MECHANICAL_CONTEXT ( 'NONE', #217, 'mechanical' ) ;
#38 = PERSON_AND_ORGANIZATION_ROLE ( 'design_owner' ) ;
#39 = UNCERTAINTY_MEASURE_WITH_UNIT (LENGTH_MEASURE( 1.000000000000000082E-05 ), #225, 'distance_accuracy_value', 'NONE');
#40 = FACE_OUTER_BOUND ( 'NONE', #162, .T. ) ;
#41 = LOCAL_TIME ( 11, 4, 10.00000000000000000, #105 ) ;
#42 = APPROVAL ( #68, 'UNSPECIFIED' ) ;
#43 = DIRECTION ( 'NONE',  ( -3.491481338843133355E-15, 9.031770143711729009E-17, -1.000000000000000000 ) ) ;
#44 = ADVANCED_FACE ( 'NONE', ( #150, #206 ), #160, .T. ) ;
#45 = PLANE ( 'NONE',  #132 ) ;
#46 = APPROVAL_PERSON_ORGANIZATION ( #61, #42, #74 ) ;
#47 = PRODUCT_DEFINITION_FORMATION_WITH_SPECIFIED_SOURCE ( 'ANY', '', #32, .NOT_KNOWN. ) ;
#48 = VERTEX_POINT ( 'NONE', #114 ) ;
#49 = AXIS2_PLACEMENT_3D ( 'NONE', #208, #94, #168 ) ;
#50 = CARTESIAN_POINT ( 'NONE',  ( 0.0000000000000000000, 2.613059892324147704, 0.0000000000000000000 ) ) ;
#51 = ORIENTED_EDGE ( 'NONE', *, *, #202, .T. ) ;
#52 = DIRECTION ( 'NONE',  ( -3.491481338843133355E-15, 9.031770143711729009E-17, -1.000000000000000000 ) ) ;
#53 = AXIS2_PLACEMENT_3D ( 'NONE', #24, #65, #158 ) ;
#54 = ORIENTED_EDGE ( 'NONE', *, *, #197, .T. ) ;
#55 = ADVANCED_FACE ( 'NONE', ( #121, #81 ), #175, .T. ) ;
#56 = DIRECTION ( 'NONE',  ( 0.0000000000000000000, 0.0000000000000000000, 1.000000000000000000 ) ) ;
#57 = CALENDAR_DATE ( 2021, 26, 11 ) ;
#58 = DIRECTION ( 'NONE',  ( 3.491481338843133355E-15, -9.031770143711729009E-17, 1.000000000000000000 ) ) ;
#59 = DATE_TIME_ROLE ( 'creation_date' ) ;
#60 = AXIS2_PLACEMENT_3D ( 'NONE', #209, #52, #228 ) ;
#61 = PERSON_AND_ORGANIZATION ( #79, #3 ) ;
#62 = APPROVAL_PERSON_ORGANIZATION ( #230, #210, #16 ) ;
#63 = CARTESIAN_POINT ( 'NONE',  ( 4.885231259955590439E-14, -1.263712492114123682E-15, 13.99185842870425134 ) ) ;
#64 = ADVANCED_FACE ( 'NONE', ( #33 ), #70, .T. ) ;
#65 = DIRECTION ( 'NONE',  ( -3.491481338843133355E-15, -5.369675669152981418E-16, -1.000000000000000000 ) ) ;
#66 = EDGE_CURVE ( 'NONE', #196, #196, #29, .T. ) ;
#67 = AXIS2_PLACEMENT_3D ( 'NONE', #226, #193, #139 ) ;
#68 = APPROVAL_STATUS ( 'not_yet_approved' ) ;
#69 = LOCAL_TIME ( 11, 4, 10.00000000000000000, #88 ) ;
#70 = PLANE ( 'NONE',  #130 ) ;
#71 = EDGE_LOOP ( 'NONE', ( #7 ) ) ;
#72 = ORIENTED_EDGE ( 'NONE', *, *, #184, .F. ) ;
#73 = PERSON_AND_ORGANIZATION ( #79, #3 ) ;
#74 = APPROVAL_ROLE ( '' ) ;
#75 = CC_DESIGN_APPROVAL ( #42, ( #47 ) ) ;
#76 = CYLINDRICAL_SURFACE ( 'NONE', #219, 1.999999999999993561 ) ;
#77 = CALENDAR_DATE ( 2021, 26, 11 ) ;
#78 = DIRECTION ( 'NONE',  ( -3.491481338843133355E-15, 9.031770143711729009E-17, -1.000000000000000000 ) ) ;
#79 = PERSON ( 'UNSPECIFIED', 'UNSPECIFIED', 'UNSPECIFIED', ('UNSPECIFIED'), ('UNSPECIFIED'), ('UNSPECIFIED') ) ;
#80 = CARTESIAN_POINT ( 'NONE',  ( 2.779219145719134403E-13, 1.999999999999988010, 79.60000000000000853 ) ) ;
#81 = FACE_OUTER_BOUND ( 'NONE', #14, .T. ) ;
#82 = VERTEX_POINT ( 'NONE', #80 ) ;
#83 = DIRECTION ( 'NONE',  ( 0.0000000000000000000, 1.000000000000000000, 0.0000000000000000000 ) ) ;
#84 = EDGE_LOOP ( 'NONE', ( #234 ) ) ;
#85 = ORIENTED_EDGE ( 'NONE', *, *, #123, .F. ) ;
#86 = DIRECTION ( 'NONE',  ( 1.000000000000000000, 0.0000000000000000000, 0.0000000000000000000 ) ) ;
#87 = ORIENTED_EDGE ( 'NONE', *, *, #173, .T. ) ;
#88 = COORDINATED_UNIVERSAL_TIME_OFFSET ( 1, 0, .AHEAD. ) ;
#89 = EDGE_LOOP ( 'NONE', ( #147 ) ) ;
#90 = ADVANCED_FACE ( 'NONE', ( #204 ), #112, .T. ) ;
#91 = CALENDAR_DATE ( 2021, 26, 11 ) ;
#92 = DATE_AND_TIME ( #77, #41 ) ;
#93 = AXIS2_PLACEMENT_3D ( 'NONE', #172, #159, #212 ) ;
#94 = DIRECTION ( 'NONE',  ( 3.491481338843133355E-15, 5.369675669152981418E-16, 1.000000000000000000 ) ) ;
#95 = CC_DESIGN_DATE_AND_TIME_ASSIGNMENT ( #92, #167, ( #4 ) ) ;
#96 = PLANE ( 'NONE',  #221 ) ;
#97 = CARTESIAN_POINT ( 'NONE',  ( 2.779219145719134403E-13, -7.189289034394536528E-15, 79.60000000000000853 ) ) ;
#98 = CARTESIAN_POINT ( 'NONE',  ( 0.0000000000000000000, 0.0000000000000000000, 0.0000000000000000000 ) ) ;
#99 =( NAMED_UNIT ( * ) PLANE_ANGLE_UNIT ( ) SI_UNIT ( $, .RADIAN. ) );
#100 = CYLINDRICAL_SURFACE ( 'NONE', #53, 2.843999999999994088 ) ;
#101 = CIRCLE ( 'NONE', #67, 2.613059892324147704 ) ;
#102 = AXIS2_PLACEMENT_3D ( 'NONE', #155, #31, #191 ) ;
#103 = CC_DESIGN_PERSON_AND_ORGANIZATION_ASSIGNMENT ( #239, #38, ( #32 ) ) ;
#104 = VERTEX_POINT ( 'NONE', #50 ) ;
#105 = COORDINATED_UNIVERSAL_TIME_OFFSET ( 1, 0, .AHEAD. ) ;
#106 = EDGE_LOOP ( 'NONE', ( #36 ) ) ;
#107 = PERSON_AND_ORGANIZATION_ROLE ( 'design_supplier' ) ;
#108 = COORDINATED_UNIVERSAL_TIME_OFFSET ( 1, 0, .AHEAD. ) ;
#109 = CC_DESIGN_DATE_AND_TIME_ASSIGNMENT ( #203, #59, ( #126 ) ) ;
#110 = PERSON_AND_ORGANIZATION_ROLE ( 'creator' ) ;
#111 = LOCAL_TIME ( 11, 4, 10.00000000000000000, #108 ) ;
#112 = PLANE ( 'NONE',  #195 ) ;
#113 = PRODUCT_RELATED_PRODUCT_CATEGORY ( 'detail', '', ( #32 ) ) ;
#114 = CARTESIAN_POINT ( 'NONE',  ( 1.396592535537253145E-15, 2.843999999999997641, 0.3999999999999999667 ) ) ;
#115 = DIRECTION ( 'NONE',  ( 0.0000000000000000000, 1.000000000000000000, 0.0000000000000000000 ) ) ;
#116 = CC_DESIGN_APPROVAL ( #210, ( #126 ) ) ;
#117 = APPROVAL_DATE_TIME ( #165, #161 ) ;
#118 =( NAMED_UNIT ( * ) SI_UNIT ( $, .STERADIAN. ) SOLID_ANGLE_UNIT ( ) );
#119 = ADVANCED_FACE ( 'NONE', ( #40, #18 ), #151, .T. ) ;
#120 = CARTESIAN_POINT ( 'NONE',  ( 2.779219145719134403E-13, -7.189289034394536528E-15, 79.60000000000000853 ) ) ;
#121 = FACE_BOUND ( 'NONE', #89, .T. ) ;
#122 = CARTESIAN_POINT ( 'NONE',  ( 4.885231259955590439E-14, 1.999999999999990452, 13.99185842870425134 ) ) ;
#123 = EDGE_CURVE ( 'NONE', #1, #1, #23, .T. ) ;
#124 = ORIENTED_EDGE ( 'NONE', *, *, #123, .T. ) ;
#125 = APPLICATION_PROTOCOL_DEFINITION ( 'international standard', 'config_control_design', 1994, #217 ) ;
#126 = PRODUCT_DEFINITION ( 'UNKNOWN', '', #47, #243 ) ;
#127 = DATE_AND_TIME ( #57, #178 ) ;
#128 = EDGE_LOOP ( 'NONE', ( #51 ) ) ;
#129 = CARTESIAN_POINT ( 'NONE',  ( 0.0000000000000000000, 0.0000000000000000000, 0.0000000000000000000 ) ) ;
#130 = AXIS2_PLACEMENT_3D ( 'NONE', #215, #58, #138 ) ;
#131 = PERSON_AND_ORGANIZATION_ROLE ( 'creator' ) ;
#132 = AXIS2_PLACEMENT_3D ( 'NONE', #213, #137, #192 ) ;
#133 = CARTESIAN_POINT ( 'NONE',  ( -2.449498334270992079E-30, 2.613059892324147704, -7.015642062926243604E-16 ) ) ;
#134 = DIRECTION ( 'NONE',  ( 0.0000000000000000000, 1.000000000000000000, 0.0000000000000000000 ) ) ;
#135 = DIRECTION ( 'NONE',  ( 3.153425691349006731E-31, 1.000000000000000000, 9.031770143711729009E-17 ) ) ;
#136 = FACE_OUTER_BOUND ( 'NONE', #231, .T. ) ;
#137 = DIRECTION ( 'NONE',  ( 3.491481338843133355E-15, 5.369675669152981418E-16, 1.000000000000000000 ) ) ;
#138 = DIRECTION ( 'NONE',  ( -3.153425691349006731E-31, -1.000000000000000000, -9.031770143711729009E-17 ) ) ;
#139 = DIRECTION ( 'NONE',  ( -1.874812239448765053E-30, 1.000000000000000000, -5.369675669152982404E-16 ) ) ;
#140 = CC_DESIGN_SECURITY_CLASSIFICATION ( #4, ( #47 ) ) ;
#141 = CLOSED_SHELL ( 'NONE', ( #64, #44, #144, #55, #90 ) ) ;
#142 = CIRCLE ( 'NONE', #93, 2.843999999999997641 ) ;
#143 = ORIENTED_EDGE ( 'NONE', *, *, #171, .F. ) ;
#144 = ADVANCED_FACE ( 'NONE', ( #148, #238 ), #76, .T. ) ;
#145 = APPROVAL_DATE_TIME ( #214, #210 ) ;
#146 = FACE_OUTER_BOUND ( 'NONE', #177, .T. ) ;
#147 = ORIENTED_EDGE ( 'NONE', *, *, #171, .T. ) ;
#148 = FACE_OUTER_BOUND ( 'NONE', #128, .T. ) ;
#149 = APPROVAL_ROLE ( '' ) ;
#150 = FACE_BOUND ( 'NONE', #84, .T. ) ;
#151 = CONICAL_SURFACE ( 'NONE', #49, 2.613059892324147704, 0.5235987755982978165 ) ;
#152 = CC_DESIGN_PERSON_AND_ORGANIZATION_ASSIGNMENT ( #216, #107, ( #47 ) ) ;
#153 = CARTESIAN_POINT ( 'NONE',  ( 4.374828752631944048E-14, 2.843999999999998085, 12.53000754711608700 ) ) ;
#154 = AXIS2_PLACEMENT_3D ( 'NONE', #129, #56, #86 ) ;
#155 = CARTESIAN_POINT ( 'NONE',  ( 4.374828752631944680E-14, 6.728207666005249547E-15, 12.53000754711608877 ) ) ;
#156 = AXIS2_PLACEMENT_3D ( 'NONE', #63, #6, #115 ) ;
#157 = DIRECTION ( 'NONE',  ( 0.0000000000000000000, 1.000000000000000000, 0.0000000000000000000 ) ) ;
#158 = DIRECTION ( 'NONE',  ( -1.874812239448765053E-30, 1.000000000000000000, -5.369675669152981418E-16 ) ) ;
#159 = DIRECTION ( 'NONE',  ( -3.491481338843133355E-15, -5.369675669152981418E-16, -1.000000000000000000 ) ) ;
#160 = CONICAL_SURFACE ( 'NONE', #229, 1.999999999999995337, 0.7853981633974516097 ) ;
#161 = APPROVAL ( #13, 'UNSPECIFIED' ) ;
#162 = EDGE_LOOP ( 'NONE', ( #87 ) ) ;
#163 = ORIENTED_EDGE ( 'NONE', *, *, #173, .F. ) ;
#164 = DIRECTION ( 'NONE',  ( -3.491481338843133355E-15, 9.031770143711729009E-17, -1.000000000000000000 ) ) ;
#165 = DATE_AND_TIME ( #10, #69 ) ;
#166 = CALENDAR_DATE ( 2021, 26, 11 ) ;
#167 = DATE_TIME_ROLE ( 'classification_date' ) ;
#168 = DIRECTION ( 'NONE',  ( 1.874812239448765053E-30, -1.000000000000000000, 5.369675669152982404E-16 ) ) ;
#169 = PERSON_AND_ORGANIZATION ( #79, #3 ) ;
#170 = ADVANCED_BREP_SHAPE_REPRESENTATION ( '321472', ( #186, #25, #154 ), #189 ) ;
#171 = EDGE_CURVE ( 'NONE', #2, #2, #218, .T. ) ;
#172 = CARTESIAN_POINT ( 'NONE',  ( 1.396592535537258470E-15, 2.147870267661200653E-16, 0.4000000000000014655 ) ) ;
#173 = EDGE_CURVE ( 'NONE', #48, #48, #142, .T. ) ;
#174 = CARTESIAN_POINT ( 'NONE',  ( 4.374828752631944680E-14, 2.843999999999998085, 12.53000754711608700 ) ) ;
#175 = CONICAL_SURFACE ( 'NONE', #60, 2.843999999999999417, 0.5235987755982932645 ) ;
#176 = APPROVAL_PERSON_ORGANIZATION ( #236, #161, #149 ) ;
#177 = EDGE_LOOP ( 'NONE', ( #8 ) ) ;
#178 = LOCAL_TIME ( 11, 4, 10.00000000000000000, #233 ) ;
#179 = CC_DESIGN_PERSON_AND_ORGANIZATION_ASSIGNMENT ( #169, #110, ( #126 ) ) ;
#180 = CARTESIAN_POINT ( 'NONE',  ( 2.793185071074506684E-13, -7.225416114969383207E-15, 80.00000000000000000 ) ) ;
#181 = EDGE_LOOP ( 'NONE', ( #201 ) ) ;
#182 = PERSON_AND_ORGANIZATION ( #79, #3 ) ;
#183 = APPROVAL_STATUS ( 'not_yet_approved' ) ;
#184 = EDGE_CURVE ( 'NONE', #104, #104, #101, .T. ) ;
#185 = DIRECTION ( 'NONE',  ( 3.153425691349006731E-31, 1.000000000000000000, 9.031770143711729009E-17 ) ) ;
#186 = MANIFOLD_SOLID_BREP ( 'Corps-Déplacer/Copier1[1]', #141 ) ;
#187 = SECURITY_CLASSIFICATION_LEVEL ( 'unclassified' ) ;
#188 = COORDINATED_UNIVERSAL_TIME_OFFSET ( 1, 0, .AHEAD. ) ;
#189 =( GEOMETRIC_REPRESENTATION_CONTEXT ( 3 ) GLOBAL_UNCERTAINTY_ASSIGNED_CONTEXT ( ( #39 ) ) GLOBAL_UNIT_ASSIGNED_CONTEXT ( ( #225, #99, #118 ) ) REPRESENTATION_CONTEXT ( 'NONE', 'WORKASPACE' ) );
#190 = CARTESIAN_POINT ( 'NONE',  ( 4.374828752631944680E-14, -1.131681480645257071E-15, 12.53000754711608700 ) ) ;
#191 = DIRECTION ( 'NONE',  ( -2.167009782714196207E-30, 1.000000000000000000, -6.099590281212420963E-16 ) ) ;
#192 = DIRECTION ( 'NONE',  ( 1.874812239448765053E-30, -1.000000000000000000, 5.369675669152981418E-16 ) ) ;
#193 = DIRECTION ( 'NONE',  ( -3.491481338843133355E-15, -5.369675669152981418E-16, -1.000000000000000000 ) ) ;
#194 = CIRCLE ( 'NONE', #30, 1.999999999999995337 ) ;
#195 = AXIS2_PLACEMENT_3D ( 'NONE', #207, #43, #185 ) ;
#196 = VERTEX_POINT ( 'NONE', #5 ) ;
#197 = EDGE_CURVE ( 'NONE', #224, #224, #222, .T. ) ;
#198 = LOCAL_TIME ( 11, 4, 10.00000000000000000, #188 ) ;
#199 = EDGE_LOOP ( 'NONE', ( #163 ) ) ;
#200 = EDGE_LOOP ( 'NONE', ( #143 ) ) ;
#201 = ORIENTED_EDGE ( 'NONE', *, *, #66, .F. ) ;
#202 = EDGE_CURVE ( 'NONE', #82, #82, #194, .T. ) ;
#203 = DATE_AND_TIME ( #91, #198 ) ;
#204 = FACE_OUTER_BOUND ( 'NONE', #11, .T. ) ;
#205 = ADVANCED_FACE ( 'NONE', ( #211 ), #45, .T. ) ;
#206 = FACE_OUTER_BOUND ( 'NONE', #106, .T. ) ;
#207 = CARTESIAN_POINT ( 'NONE',  ( 4.374828752631944048E-14, 2.843999999999998085, 12.53000754711608522 ) ) ;
#208 = CARTESIAN_POINT ( 'NONE',  ( 4.898996668541984158E-30, 7.534344497756255650E-31, 1.403128412585248721E-15 ) ) ;
#209 = CARTESIAN_POINT ( 'NONE',  ( 4.374828752631944680E-14, -1.131681480645257071E-15, 12.53000754711608700 ) ) ;
#210 = APPROVAL ( #183, 'UNSPECIFIED' ) ;
#211 = FACE_OUTER_BOUND ( 'NONE', #71, .T. ) ;
#212 = DIRECTION ( 'NONE',  ( -1.896133559874917477E-30, 1.000000000000000000, -5.337141496060856509E-16 ) ) ;
#213 = CARTESIAN_POINT ( 'NONE',  ( 4.374828752631944048E-14, 6.728207666005247969E-15, 12.53000754711608522 ) ) ;
#214 = DATE_AND_TIME ( #166, #111 ) ;
#215 = CARTESIAN_POINT ( 'NONE',  ( 2.793185071074506684E-13, -7.225416114969383207E-15, 80.00000000000000000 ) ) ;
#216 = PERSON_AND_ORGANIZATION ( #79, #3 ) ;
#217 = APPLICATION_CONTEXT ( 'configuration controlled 3d designs of mechanical parts and assemblies' ) ;
#218 = CIRCLE ( 'NONE', #156, 1.999999999999991784 ) ;
#219 = AXIS2_PLACEMENT_3D ( 'NONE', #98, #242, #135 ) ;
#220 = APPLICATION_PROTOCOL_DEFINITION ( 'international standard', 'config_control_design', 1994, #15 ) ;
#221 = AXIS2_PLACEMENT_3D ( 'NONE', #133, #240, #20 ) ;
#222 = CIRCLE ( 'NONE', #102, 2.843999999999990980 ) ;
#223 = SHAPE_DEFINITION_REPRESENTATION ( #227, #170 ) ;
#224 = VERTEX_POINT ( 'NONE', #153 ) ;
#225 =( LENGTH_UNIT ( ) NAMED_UNIT ( * ) SI_UNIT ( .MILLI., .METRE. ) );
#226 = CARTESIAN_POINT ( 'NONE',  ( 4.898996668541984158E-30, 7.534344497756255650E-31, 1.403128412585248721E-15 ) ) ;
#227 = PRODUCT_DEFINITION_SHAPE ( 'NONE', 'NONE',  #126 ) ;
#228 = DIRECTION ( 'NONE',  ( 0.0000000000000000000, 1.000000000000000000, 0.0000000000000000000 ) ) ;
#229 = AXIS2_PLACEMENT_3D ( 'NONE', #97, #241, #157 ) ;
#230 = PERSON_AND_ORGANIZATION ( #79, #3 ) ;
#231 = EDGE_LOOP ( 'NONE', ( #54 ) ) ;
#232 = CC_DESIGN_PERSON_AND_ORGANIZATION_ASSIGNMENT ( #73, #131, ( #47 ) ) ;
#233 = COORDINATED_UNIVERSAL_TIME_OFFSET ( 1, 0, .AHEAD. ) ;
#234 = ORIENTED_EDGE ( 'NONE', *, *, #66, .T. ) ;
#235 = APPROVAL_DATE_TIME ( #127, #42 ) ;
#236 = PERSON_AND_ORGANIZATION ( #79, #3 ) ;
#237 = ADVANCED_FACE ( 'NONE', ( #136, #27 ), #100, .T. ) ;
#238 = FACE_OUTER_BOUND ( 'NONE', #200, .T. ) ;
#239 = PERSON_AND_ORGANIZATION ( #79, #3 ) ;
#240 = DIRECTION ( 'NONE',  ( -3.491481338843133355E-15, -5.369675669152981418E-16, -1.000000000000000000 ) ) ;
#241 = DIRECTION ( 'NONE',  ( -3.491481338843133355E-15, 9.031770143711729009E-17, -1.000000000000000000 ) ) ;
#242 = DIRECTION ( 'NONE',  ( -3.491481338843133355E-15, 9.031770143711729009E-17, -1.000000000000000000 ) ) ;
#243 = DESIGN_CONTEXT ( 'detailed design', #15, 'design' ) ;
ENDSEC;
END-ISO-10303-21;
