ISO-10303-21;
HEADER;
FILE_DESCRIPTION (( 'STEP AP203' ),
    '1' );
FILE_NAME ('321471.step',
    '2021-11-26T10:04:09',
    ( '' ),
    ( '' ),
    'SwSTEP 2.0',
    'SolidWorks 2019',
    '' );
FILE_SCHEMA (( 'CONFIG_CONTROL_DESIGN' ));
ENDSEC;

DATA;
#1 = PERSON_AND_ORGANIZATION_ROLE ( 'creator' ) ;
#2 = ORIENTED_EDGE ( 'NONE', *, *, #8, .F. ) ;
#3 = LOCAL_TIME ( 11, 4, 9.000000000000000000, #109 ) ;
#4 = DIRECTION ( 'NONE',  ( -1.872926687654049749E-30, 1.000000000000000000, -5.364275234175029913E-16 ) ) ;
#5 = CARTESIAN_POINT ( 'NONE',  ( 4.885231259955590439E-14, -1.263712492114123682E-15, 13.99185842870425134 ) ) ;
#6 = PERSON_AND_ORGANIZATION_ROLE ( 'design_supplier' ) ;
#7 = EDGE_LOOP ( 'NONE', ( #138 ) ) ;
#8 = EDGE_CURVE ( 'NONE', #191, #191, #236, .T. ) ;
#9 = CALENDAR_DATE ( 2021, 26, 11 ) ;
#10 = EDGE_LOOP ( 'NONE', ( #37 ) ) ;
#11 = CIRCLE ( 'NONE', #70, 2.838999999999997748 ) ;
#12 = VERTEX_POINT ( 'NONE', #48 ) ;
#13 = ORIENTED_EDGE ( 'NONE', *, *, #66, .T. ) ;
#14 = FACE_OUTER_BOUND ( 'NONE', #180, .T. ) ;
#15 = DATE_AND_TIME ( #33, #75 ) ;
#16 = CALENDAR_DATE ( 2021, 26, 11 ) ;
#17 = CARTESIAN_POINT ( 'NONE',  ( 0.0000000000000000000, 0.0000000000000000000, 0.0000000000000000000 ) ) ;
#18 = DESIGN_CONTEXT ( 'detailed design', #202, 'design' ) ;
#19 = FACE_OUTER_BOUND ( 'NONE', #77, .T. ) ;
#20 = CC_DESIGN_APPROVAL ( #26, ( #88 ) ) ;
#21 = ADVANCED_FACE ( 'NONE', ( #178, #175 ), #122, .T. ) ;
#22 = PERSON_AND_ORGANIZATION_ROLE ( 'classification_officer' ) ;
#23 = ORIENTED_EDGE ( 'NONE', *, *, #90, .F. ) ;
#24 = APPLICATION_CONTEXT ( 'configuration controlled 3d designs of mechanical parts and assemblies' ) ;
#25 = CARTESIAN_POINT ( 'NONE',  ( 0.0000000000000000000, 0.0000000000000000000, 0.0000000000000000000 ) ) ;
#26 = APPROVAL ( #61, 'UNSPECIFIED' ) ;
#27 = FACE_BOUND ( 'NONE', #10, .T. ) ;
#28 = FACE_BOUND ( 'NONE', #168, .T. ) ;
#29 = VERTEX_POINT ( 'NONE', #179 ) ;
#30 = ORIENTED_EDGE ( 'NONE', *, *, #66, .F. ) ;
#31 = ORGANIZATION ( 'UNSPECIFIED', 'UNSPECIFIED', '' ) ;
#32 = APPROVAL_ROLE ( '' ) ;
#33 = CALENDAR_DATE ( 2021, 26, 11 ) ;
#34 = CARTESIAN_POINT ( 'NONE',  ( 1.396592535537253145E-15, 2.838999999999997748, 0.3999999999999999667 ) ) ;
#35 = APPROVAL ( #200, 'UNSPECIFIED' ) ;
#36 = ORIENTED_EDGE ( 'NONE', *, *, #90, .T. ) ;
#37 = ORIENTED_EDGE ( 'NONE', *, *, #240, .T. ) ;
#38 = EDGE_CURVE ( 'NONE', #103, #103, #230, .T. ) ;
#39 =( GEOMETRIC_REPRESENTATION_CONTEXT ( 3 ) GLOBAL_UNCERTAINTY_ASSIGNED_CONTEXT ( ( #198 ) ) GLOBAL_UNIT_ASSIGNED_CONTEXT ( ( #161, #183, #74 ) ) REPRESENTATION_CONTEXT ( 'NONE', 'WORKASPACE' ) );
#40 = AXIS2_PLACEMENT_3D ( 'NONE', #235, #117, #86 ) ;
#41 = DIRECTION ( 'NONE',  ( -1.872926687654049749E-30, 1.000000000000000000, -5.364275234175029913E-16 ) ) ;
#42 = EDGE_LOOP ( 'NONE', ( #30 ) ) ;
#43 = APPROVAL_PERSON_ORGANIZATION ( #81, #26, #134 ) ;
#44 = DIRECTION ( 'NONE',  ( 1.872926687654049749E-30, -1.000000000000000000, 5.364275234175029913E-16 ) ) ;
#45 = ORIENTED_EDGE ( 'NONE', *, *, #38, .F. ) ;
#46 = CARTESIAN_POINT ( 'NONE',  ( 4.377852464168221553E-14, 2.838999999999998192, 12.53866780115393098 ) ) ;
#47 = EDGE_LOOP ( 'NONE', ( #227 ) ) ;
#48 = CARTESIAN_POINT ( 'NONE',  ( 4.377852464168221553E-14, 2.838999999999998192, 12.53866780115393098 ) ) ;
#49 = CC_DESIGN_PERSON_AND_ORGANIZATION_ASSIGNMENT ( #143, #73, ( #164 ) ) ;
#50 = DIRECTION ( 'NONE',  ( 0.0000000000000000000, 1.000000000000000000, 0.0000000000000000000 ) ) ;
#51 = LOCAL_TIME ( 11, 4, 9.000000000000000000, #219 ) ;
#52 = CARTESIAN_POINT ( 'NONE',  ( 2.793185071074506684E-13, -7.225416114969383207E-15, 80.00000000000000000 ) ) ;
#53 = DIRECTION ( 'NONE',  ( 1.000000000000000000, 0.0000000000000000000, 0.0000000000000000000 ) ) ;
#54 = CLOSED_SHELL ( 'NONE', ( #72, #91, #21, #167, #199 ) ) ;
#55 = DATE_AND_TIME ( #148, #51 ) ;
#56 = VERTEX_POINT ( 'NONE', #130 ) ;
#57 = DATE_AND_TIME ( #9, #166 ) ;
#58 = EDGE_LOOP ( 'NONE', ( #2 ) ) ;
#59 = AXIS2_PLACEMENT_3D ( 'NONE', #131, #133, #41 ) ;
#60 = PERSON ( 'UNSPECIFIED', 'UNSPECIFIED', 'UNSPECIFIED', ('UNSPECIFIED'), ('UNSPECIFIED'), ('UNSPECIFIED') ) ;
#61 = APPROVAL_STATUS ( 'not_yet_approved' ) ;
#62 = CARTESIAN_POINT ( 'NONE',  ( 2.793185071074506684E-13, -7.225416114969383207E-15, 80.00000000000000000 ) ) ;
#63 = LOCAL_TIME ( 11, 4, 9.000000000000000000, #116 ) ;
#64 = CARTESIAN_POINT ( 'NONE',  ( 4.377852464168222815E-14, 6.726086515527793936E-15, 12.53866780115393453 ) ) ;
#65 = DIRECTION ( 'NONE',  ( 3.153425691349006731E-31, 1.000000000000000000, 9.031770143711729009E-17 ) ) ;
#66 = EDGE_CURVE ( 'NONE', #12, #12, #145, .T. ) ;
#67 = FACE_OUTER_BOUND ( 'NONE', #42, .T. ) ;
#68 = EDGE_LOOP ( 'NONE', ( #13 ) ) ;
#69 = AXIS2_PLACEMENT_3D ( 'NONE', #190, #105, #80 ) ;
#70 = AXIS2_PLACEMENT_3D ( 'NONE', #232, #234, #118 ) ;
#71 = APPROVAL_ROLE ( '' ) ;
#72 = ADVANCED_FACE ( 'NONE', ( #100 ), #151, .T. ) ;
#73 = PERSON_AND_ORGANIZATION_ROLE ( 'creator' ) ;
#74 =( NAMED_UNIT ( * ) SI_UNIT ( $, .STERADIAN. ) SOLID_ANGLE_UNIT ( ) );
#75 = LOCAL_TIME ( 11, 4, 9.000000000000000000, #241 ) ;
#76 = SECURITY_CLASSIFICATION_LEVEL ( 'unclassified' ) ;
#77 = EDGE_LOOP ( 'NONE', ( #95 ) ) ;
#78 = AXIS2_PLACEMENT_3D ( 'NONE', #213, #218, #229 ) ;
#79 = COORDINATED_UNIVERSAL_TIME_OFFSET ( 1, 0, .AHEAD. ) ;
#80 = DIRECTION ( 'NONE',  ( -1.872926687654049749E-30, 1.000000000000000000, -5.364275234175029913E-16 ) ) ;
#81 = PERSON_AND_ORGANIZATION ( #60, #31 ) ;
#82 = CARTESIAN_POINT ( 'NONE',  ( 4.377852464168221553E-14, -1.132463654883816761E-15, 12.53866780115393098 ) ) ;
#83 = PLANE ( 'NONE',  #226 ) ;
#84 = CARTESIAN_POINT ( 'NONE',  ( 2.779219145719134403E-13, -7.189289034394536528E-15, 79.60000000000000853 ) ) ;
#85 = DIRECTION ( 'NONE',  ( -3.491481338843133355E-15, 9.031770143711729009E-17, -1.000000000000000000 ) ) ;
#86 = DIRECTION ( 'NONE',  ( 0.0000000000000000000, 1.000000000000000000, 0.0000000000000000000 ) ) ;
#87 = DIRECTION ( 'NONE',  ( 1.872926687654049398E-30, -1.000000000000000000, 5.364275234175029913E-16 ) ) ;
#88 = SECURITY_CLASSIFICATION ( '', '', #76 ) ;
#89 = APPROVAL_DATE_TIME ( #15, #124 ) ;
#90 = EDGE_CURVE ( 'NONE', #29, #29, #97, .T. ) ;
#91 = ADVANCED_FACE ( 'NONE', ( #28, #14 ), #217, .T. ) ;
#92 = CONICAL_SURFACE ( 'NONE', #170, 2.838999999999999524, 0.5235987755982931535 ) ;
#93 = DIRECTION ( 'NONE',  ( 0.0000000000000000000, 0.0000000000000000000, 1.000000000000000000 ) ) ;
#94 = AXIS2_PLACEMENT_3D ( 'NONE', #84, #216, #155 ) ;
#95 = ORIENTED_EDGE ( 'NONE', *, *, #8, .T. ) ;
#96 = CC_DESIGN_DATE_AND_TIME_ASSIGNMENT ( #57, #132, ( #88 ) ) ;
#97 = CIRCLE ( 'NONE', #211, 1.599999999999994982 ) ;
#98 = DIRECTION ( 'NONE',  ( -3.491481338843133355E-15, 9.031770143711729009E-17, -1.000000000000000000 ) ) ;
#99 = PRODUCT ( '321471', '321471', '', ( #197 ) ) ;
#100 = FACE_OUTER_BOUND ( 'NONE', #233, .T. ) ;
#101 = PERSON_AND_ORGANIZATION ( #60, #31 ) ;
#102 = DIRECTION ( 'NONE',  ( -3.491481338843133355E-15, 9.031770143711729009E-17, -1.000000000000000000 ) ) ;
#103 = VERTEX_POINT ( 'NONE', #176 ) ;
#104 = CC_DESIGN_APPROVAL ( #35, ( #242 ) ) ;
#105 = DIRECTION ( 'NONE',  ( -3.491481338843133355E-15, -5.364275234175029913E-16, -1.000000000000000000 ) ) ;
#106 = DIRECTION ( 'NONE',  ( -3.491481338843133355E-15, 9.031770143711729009E-17, -1.000000000000000000 ) ) ;
#107 = CARTESIAN_POINT ( 'NONE',  ( 4.377852464168222815E-14, 2.838999999999998192, 12.53866780115393453 ) ) ;
#108 = CONICAL_SURFACE ( 'NONE', #209, 2.608059892324147810, 0.5235987755982978165 ) ;
#109 = COORDINATED_UNIVERSAL_TIME_OFFSET ( 1, 0, .AHEAD. ) ;
#110 = MANIFOLD_SOLID_BREP ( 'Corps-Déplacer/Copier1[2]', #156 ) ;
#111 = EDGE_CURVE ( 'NONE', #56, #56, #162, .T. ) ;
#112 = CARTESIAN_POINT ( 'NONE',  ( 4.885231259955590439E-14, 1.999999999999990452, 13.99185842870425134 ) ) ;
#113 = CIRCLE ( 'NONE', #147, 1.999999999999991784 ) ;
#114 = CC_DESIGN_PERSON_AND_ORGANIZATION_ASSIGNMENT ( #129, #181, ( #99 ) ) ;
#115 = CC_DESIGN_PERSON_AND_ORGANIZATION_ASSIGNMENT ( #222, #1, ( #242 ) ) ;
#116 = COORDINATED_UNIVERSAL_TIME_OFFSET ( 1, 0, .AHEAD. ) ;
#117 = DIRECTION ( 'NONE',  ( -3.491481338843133355E-15, 9.031770143711729009E-17, -1.000000000000000000 ) ) ;
#118 = DIRECTION ( 'NONE',  ( -1.899472999043418504E-30, 1.000000000000000000, -5.346541181682661300E-16 ) ) ;
#119 = PERSON_AND_ORGANIZATION ( #60, #31 ) ;
#120 = CARTESIAN_POINT ( 'NONE',  ( 4.884704975334043319E-30, 7.504809386756746570E-31, 1.399035108963962195E-15 ) ) ;
#121 = ADVANCED_FACE ( 'NONE', ( #189 ), #192, .T. ) ;
#122 = CYLINDRICAL_SURFACE ( 'NONE', #149, 1.999999999999993561 ) ;
#123 = DIRECTION ( 'NONE',  ( 3.491481338843133355E-15, 5.364275234175029913E-16, 1.000000000000000000 ) ) ;
#124 = APPROVAL ( #243, 'UNSPECIFIED' ) ;
#125 = DIRECTION ( 'NONE',  ( 3.491481338843133355E-15, -9.031770143711729009E-17, 1.000000000000000000 ) ) ;
#126 = PERSON_AND_ORGANIZATION ( #60, #31 ) ;
#127 = CC_DESIGN_APPROVAL ( #124, ( #164 ) ) ;
#128 = CC_DESIGN_SECURITY_CLASSIFICATION ( #88, ( #242 ) ) ;
#129 = PERSON_AND_ORGANIZATION ( #60, #31 ) ;
#130 = CARTESIAN_POINT ( 'NONE',  ( -6.842277657836020854E-46, 2.608059892324147810, 0.0000000000000000000 ) ) ;
#131 = CARTESIAN_POINT ( 'NONE',  ( 0.0000000000000000000, 0.0000000000000000000, 0.0000000000000000000 ) ) ;
#132 = DATE_TIME_ROLE ( 'classification_date' ) ;
#133 = DIRECTION ( 'NONE',  ( -3.491481338843133355E-15, -5.364275234175029913E-16, -1.000000000000000000 ) ) ;
#134 = APPROVAL_ROLE ( '' ) ;
#135 = DIRECTION ( 'NONE',  ( 0.0000000000000000000, 1.000000000000000000, 0.0000000000000000000 ) ) ;
#136 = DIRECTION ( 'NONE',  ( -3.491481338843133355E-15, 9.031770143711729009E-17, -1.000000000000000000 ) ) ;
#137 = AXIS2_PLACEMENT_3D ( 'NONE', #171, #85, #50 ) ;
#138 = ORIENTED_EDGE ( 'NONE', *, *, #240, .F. ) ;
#139 = FACE_OUTER_BOUND ( 'NONE', #215, .T. ) ;
#140 = DIRECTION ( 'NONE',  ( 3.153425691349006731E-31, 1.000000000000000000, 9.031770143711729009E-17 ) ) ;
#141 = CC_DESIGN_PERSON_AND_ORGANIZATION_ASSIGNMENT ( #119, #6, ( #242 ) ) ;
#142 = ORIENTED_EDGE ( 'NONE', *, *, #111, .F. ) ;
#143 = PERSON_AND_ORGANIZATION ( #60, #31 ) ;
#144 = APPLICATION_PROTOCOL_DEFINITION ( 'international standard', 'config_control_design', 1994, #202 ) ;
#145 = CIRCLE ( 'NONE', #78, 2.838999999999991086 ) ;
#146 = CYLINDRICAL_SURFACE ( 'NONE', #59, 2.838999999999994195 ) ;
#147 = AXIS2_PLACEMENT_3D ( 'NONE', #5, #152, #212 ) ;
#148 = CALENDAR_DATE ( 2021, 26, 11 ) ;
#149 = AXIS2_PLACEMENT_3D ( 'NONE', #25, #106, #65 ) ;
#150 = EDGE_LOOP ( 'NONE', ( #224 ) ) ;
#151 = PLANE ( 'NONE',  #182 ) ;
#152 = DIRECTION ( 'NONE',  ( -3.491481338843133355E-15, 9.031770143711729009E-17, -1.000000000000000000 ) ) ;
#153 = ADVANCED_FACE ( 'NONE', ( #67 ), #228, .T. ) ;
#154 = CALENDAR_DATE ( 2021, 26, 11 ) ;
#155 = DIRECTION ( 'NONE',  ( 0.0000000000000000000, 1.000000000000000000, 0.0000000000000000000 ) ) ;
#156 = CLOSED_SHELL ( 'NONE', ( #153, #177, #223, #121 ) ) ;
#157 = DIRECTION ( 'NONE',  ( 0.0000000000000000000, 1.000000000000000000, 0.0000000000000000000 ) ) ;
#158 = EDGE_LOOP ( 'NONE', ( #195 ) ) ;
#159 = EDGE_LOOP ( 'NONE', ( #142 ) ) ;
#160 = APPROVAL_PERSON_ORGANIZATION ( #201, #124, #71 ) ;
#161 =( LENGTH_UNIT ( ) NAMED_UNIT ( * ) SI_UNIT ( .MILLI., .METRE. ) );
#162 = CIRCLE ( 'NONE', #193, 2.608059892324147810 ) ;
#163 = APPLICATION_PROTOCOL_DEFINITION ( 'international standard', 'config_control_design', 1994, #24 ) ;
#164 = PRODUCT_DEFINITION ( 'UNKNOWN', '', #242, #18 ) ;
#165 = PRODUCT_DEFINITION_SHAPE ( 'NONE', 'NONE',  #164 ) ;
#166 = LOCAL_TIME ( 11, 4, 9.000000000000000000, #79 ) ;
#167 = ADVANCED_FACE ( 'NONE', ( #27, #174 ), #92, .T. ) ;
#168 = EDGE_LOOP ( 'NONE', ( #36 ) ) ;
#169 = APPROVAL_DATE_TIME ( #203, #35 ) ;
#170 = AXIS2_PLACEMENT_3D ( 'NONE', #82, #102, #157 ) ;
#171 = CARTESIAN_POINT ( 'NONE',  ( 2.779219145719134403E-13, -7.189289034394536528E-15, 79.60000000000000853 ) ) ;
#172 = FACE_BOUND ( 'NONE', #159, .T. ) ;
#173 = SHAPE_DEFINITION_REPRESENTATION ( #165, #225 ) ;
#174 = FACE_OUTER_BOUND ( 'NONE', #58, .T. ) ;
#175 = FACE_OUTER_BOUND ( 'NONE', #7, .T. ) ;
#176 = CARTESIAN_POINT ( 'NONE',  ( 2.779219145719134403E-13, 1.999999999999988010, 79.60000000000000853 ) ) ;
#177 = ADVANCED_FACE ( 'NONE', ( #231, #139 ), #146, .T. ) ;
#178 = FACE_OUTER_BOUND ( 'NONE', #150, .T. ) ;
#179 = CARTESIAN_POINT ( 'NONE',  ( 2.793185071074506684E-13, 1.599999999999987876, 80.00000000000000000 ) ) ;
#180 = EDGE_LOOP ( 'NONE', ( #45 ) ) ;
#181 = PERSON_AND_ORGANIZATION_ROLE ( 'design_owner' ) ;
#182 = AXIS2_PLACEMENT_3D ( 'NONE', #52, #125, #196 ) ;
#183 =( NAMED_UNIT ( * ) PLANE_ANGLE_UNIT ( ) SI_UNIT ( $, .RADIAN. ) );
#184 = ORIENTED_EDGE ( 'NONE', *, *, #208, .F. ) ;
#185 = MANIFOLD_SOLID_BREP ( 'Corps-Déplacer/Copier1[1]', #54 ) ;
#186 = PRODUCT_RELATED_PRODUCT_CATEGORY ( 'detail', '', ( #99 ) ) ;
#187 = APPROVAL_PERSON_ORGANIZATION ( #126, #35, #32 ) ;
#188 = APPROVAL_DATE_TIME ( #207, #26 ) ;
#189 = FACE_OUTER_BOUND ( 'NONE', #47, .T. ) ;
#190 = CARTESIAN_POINT ( 'NONE',  ( -2.442352487667021660E-30, 2.608059892324147810, -6.995175544819810973E-16 ) ) ;
#191 = VERTEX_POINT ( 'NONE', #46 ) ;
#192 = PLANE ( 'NONE',  #69 ) ;
#193 = AXIS2_PLACEMENT_3D ( 'NONE', #120, #210, #4 ) ;
#194 = CARTESIAN_POINT ( 'NONE',  ( 4.884704975334043319E-30, 7.504809386756746570E-31, 1.399035108963962195E-15 ) ) ;
#195 = ORIENTED_EDGE ( 'NONE', *, *, #208, .T. ) ;
#196 = DIRECTION ( 'NONE',  ( -3.153425691349006731E-31, -1.000000000000000000, -9.031770143711729009E-17 ) ) ;
#197 = MECHANICAL_CONTEXT ( 'NONE', #24, 'mechanical' ) ;
#198 = UNCERTAINTY_MEASURE_WITH_UNIT (LENGTH_MEASURE( 1.000000000000000082E-05 ), #161, 'distance_accuracy_value', 'NONE');
#199 = ADVANCED_FACE ( 'NONE', ( #19 ), #83, .T. ) ;
#200 = APPROVAL_STATUS ( 'not_yet_approved' ) ;
#201 = PERSON_AND_ORGANIZATION ( #60, #31 ) ;
#202 = APPLICATION_CONTEXT ( 'configuration controlled 3d designs of mechanical parts and assemblies' ) ;
#203 = DATE_AND_TIME ( #16, #3 ) ;
#204 = CC_DESIGN_DATE_AND_TIME_ASSIGNMENT ( #55, #221, ( #164 ) ) ;
#205 = VERTEX_POINT ( 'NONE', #112 ) ;
#206 = AXIS2_PLACEMENT_3D ( 'NONE', #17, #93, #53 ) ;
#207 = DATE_AND_TIME ( #154, #63 ) ;
#208 = EDGE_CURVE ( 'NONE', #239, #239, #11, .T. ) ;
#209 = AXIS2_PLACEMENT_3D ( 'NONE', #194, #237, #87 ) ;
#210 = DIRECTION ( 'NONE',  ( -3.491481338843133355E-15, -5.364275234175029913E-16, -1.000000000000000000 ) ) ;
#211 = AXIS2_PLACEMENT_3D ( 'NONE', #62, #98, #135 ) ;
#212 = DIRECTION ( 'NONE',  ( 0.0000000000000000000, 1.000000000000000000, 0.0000000000000000000 ) ) ;
#213 = CARTESIAN_POINT ( 'NONE',  ( 4.377852464168222184E-14, 6.726086515527792359E-15, 12.53866780115393276 ) ) ;
#214 = FACE_OUTER_BOUND ( 'NONE', #158, .T. ) ;
#215 = EDGE_LOOP ( 'NONE', ( #184 ) ) ;
#216 = DIRECTION ( 'NONE',  ( -3.491481338843133355E-15, 9.031770143711729009E-17, -1.000000000000000000 ) ) ;
#217 = CONICAL_SURFACE ( 'NONE', #137, 1.999999999999995337, 0.7853981633974516097 ) ;
#218 = DIRECTION ( 'NONE',  ( -3.491481338843133355E-15, -5.364275234175029913E-16, -1.000000000000000000 ) ) ;
#219 = COORDINATED_UNIVERSAL_TIME_OFFSET ( 1, 0, .AHEAD. ) ;
#220 = AXIS2_PLACEMENT_3D ( 'NONE', #64, #123, #44 ) ;
#221 = DATE_TIME_ROLE ( 'creation_date' ) ;
#222 = PERSON_AND_ORGANIZATION ( #60, #31 ) ;
#223 = ADVANCED_FACE ( 'NONE', ( #214, #172 ), #108, .T. ) ;
#224 = ORIENTED_EDGE ( 'NONE', *, *, #38, .T. ) ;
#225 = ADVANCED_BREP_SHAPE_REPRESENTATION ( '321471', ( #185, #110, #206 ), #39 ) ;
#226 = AXIS2_PLACEMENT_3D ( 'NONE', #107, #136, #140 ) ;
#227 = ORIENTED_EDGE ( 'NONE', *, *, #111, .T. ) ;
#228 = PLANE ( 'NONE',  #220 ) ;
#229 = DIRECTION ( 'NONE',  ( -2.170826284621054573E-30, 1.000000000000000000, -6.110332779065912292E-16 ) ) ;
#230 = CIRCLE ( 'NONE', #94, 1.999999999999995337 ) ;
#231 = FACE_OUTER_BOUND ( 'NONE', #68, .T. ) ;
#232 = CARTESIAN_POINT ( 'NONE',  ( 1.396592535537258470E-15, 2.145710093670019804E-16, 0.4000000000000014655 ) ) ;
#233 = EDGE_LOOP ( 'NONE', ( #23 ) ) ;
#234 = DIRECTION ( 'NONE',  ( -3.491481338843133355E-15, -5.364275234175029913E-16, -1.000000000000000000 ) ) ;
#235 = CARTESIAN_POINT ( 'NONE',  ( 4.377852464168221553E-14, -1.132463654883816761E-15, 12.53866780115393098 ) ) ;
#236 = CIRCLE ( 'NONE', #40, 2.838999999999999524 ) ;
#237 = DIRECTION ( 'NONE',  ( 3.491481338843133355E-15, 5.364275234175029913E-16, 1.000000000000000000 ) ) ;
#238 = CC_DESIGN_PERSON_AND_ORGANIZATION_ASSIGNMENT ( #101, #22, ( #88 ) ) ;
#239 = VERTEX_POINT ( 'NONE', #34 ) ;
#240 = EDGE_CURVE ( 'NONE', #205, #205, #113, .T. ) ;
#241 = COORDINATED_UNIVERSAL_TIME_OFFSET ( 1, 0, .AHEAD. ) ;
#242 = PRODUCT_DEFINITION_FORMATION_WITH_SPECIFIED_SOURCE ( 'ANY', '', #99, .NOT_KNOWN. ) ;
#243 = APPROVAL_STATUS ( 'not_yet_approved' ) ;
ENDSEC;
END-ISO-10303-21;
