ISO-10303-21;
HEADER;
FILE_DESCRIPTION (( 'STEP AP203' ),
    '1' );
FILE_NAME ('321470.step',
    '2021-11-26T10:04:09',
    ( '' ),
    ( '' ),
    'SwSTEP 2.0',
    'SolidWorks 2019',
    '' );
FILE_SCHEMA (( 'CONFIG_CONTROL_DESIGN' ));
ENDSEC;

DATA;
#1 = VERTEX_POINT ( 'NONE', #148 ) ;
#2 = ORIENTED_EDGE ( 'NONE', *, *, #173, .T. ) ;
#3 = EDGE_LOOP ( 'NONE', ( #49 ) ) ;
#4 = CC_DESIGN_PERSON_AND_ORGANIZATION_ASSIGNMENT ( #161, #97, ( #87 ) ) ;
#5 = CIRCLE ( 'NONE', #77, 2.833999999999997854 ) ;
#6 = DIRECTION ( 'NONE',  ( -3.491481338843133355E-15, 9.031770143711729009E-17, -1.000000000000000000 ) ) ;
#7 = ORIENTED_EDGE ( 'NONE', *, *, #79, .T. ) ;
#8 = ADVANCED_FACE ( 'NONE', ( #170, #96 ), #155, .T. ) ;
#9 =( GEOMETRIC_REPRESENTATION_CONTEXT ( 3 ) GLOBAL_UNCERTAINTY_ASSIGNED_CONTEXT ( ( #214 ) ) GLOBAL_UNIT_ASSIGNED_CONTEXT ( ( #17, #201, #181 ) ) REPRESENTATION_CONTEXT ( 'NONE', 'WORKASPACE' ) );
#10 = CLOSED_SHELL ( 'NONE', ( #143, #137, #230, #8, #22 ) ) ;
#11 = LOCAL_TIME ( 11, 4, 9.000000000000000000, #200 ) ;
#12 = EDGE_CURVE ( 'NONE', #82, #82, #188, .T. ) ;
#13 = CALENDAR_DATE ( 2021, 26, 11 ) ;
#14 = CARTESIAN_POINT ( 'NONE',  ( 1.396592535537253145E-15, 2.833999999999997854, 0.3999999999999999667 ) ) ;
#15 = DIRECTION ( 'NONE',  ( -3.491481338843133355E-15, 9.031770143711729009E-17, -1.000000000000000000 ) ) ;
#16 = DATE_AND_TIME ( #237, #117 ) ;
#17 =( LENGTH_UNIT ( ) NAMED_UNIT ( * ) SI_UNIT ( .MILLI., .METRE. ) );
#18 = ORIENTED_EDGE ( 'NONE', *, *, #197, .F. ) ;
#19 = DIRECTION ( 'NONE',  ( 3.153425691349006731E-31, 1.000000000000000000, 9.031770143711729009E-17 ) ) ;
#20 = FACE_OUTER_BOUND ( 'NONE', #196, .T. ) ;
#21 = DIRECTION ( 'NONE',  ( -3.491481338843133355E-15, -5.358882254033465933E-16, -1.000000000000000000 ) ) ;
#22 = ADVANCED_FACE ( 'NONE', ( #238 ), #186, .T. ) ;
#23 = FACE_OUTER_BOUND ( 'NONE', #3, .T. ) ;
#24 = CARTESIAN_POINT ( 'NONE',  ( 4.885231259955590439E-14, -1.263712492114123682E-15, 13.99185842870425134 ) ) ;
#25 = AXIS2_PLACEMENT_3D ( 'NONE', #75, #37, #167 ) ;
#26 = CALENDAR_DATE ( 2021, 26, 11 ) ;
#27 = ORIENTED_EDGE ( 'NONE', *, *, #173, .F. ) ;
#28 = APPROVAL_PERSON_ORGANIZATION ( #46, #224, #241 ) ;
#29 = PERSON_AND_ORGANIZATION ( #178, #89 ) ;
#30 = MANIFOLD_SOLID_BREP ( 'Corps-Déplacer/Copier1[2]', #69 ) ;
#31 = PERSON_AND_ORGANIZATION_ROLE ( 'creator' ) ;
#32 = DATE_TIME_ROLE ( 'classification_date' ) ;
#33 = PLANE ( 'NONE',  #132 ) ;
#34 = CARTESIAN_POINT ( 'NONE',  ( 2.793185071074506684E-13, -7.225416114969383207E-15, 80.00000000000000000 ) ) ;
#35 = VERTEX_POINT ( 'NONE', #242 ) ;
#36 = ORIENTED_EDGE ( 'NONE', *, *, #47, .T. ) ;
#37 = DIRECTION ( 'NONE',  ( -3.491481338843133355E-15, 9.031770143711729009E-17, -1.000000000000000000 ) ) ;
#38 = DIRECTION ( 'NONE',  ( 3.491481338843133355E-15, -9.031770143711729009E-17, 1.000000000000000000 ) ) ;
#39 = PERSON_AND_ORGANIZATION ( #178, #89 ) ;
#40 = AXIS2_PLACEMENT_3D ( 'NONE', #211, #6, #144 ) ;
#41 = CARTESIAN_POINT ( 'NONE',  ( 0.0000000000000000000, 0.0000000000000000000, 0.0000000000000000000 ) ) ;
#42 = PLANE ( 'NONE',  #159 ) ;
#43 = LOCAL_TIME ( 11, 4, 9.000000000000000000, #193 ) ;
#44 = APPROVAL_PERSON_ORGANIZATION ( #128, #171, #66 ) ;
#45 = AXIS2_PLACEMENT_3D ( 'NONE', #243, #83, #118 ) ;
#46 = PERSON_AND_ORGANIZATION ( #178, #89 ) ;
#47 = EDGE_CURVE ( 'NONE', #1, #1, #168, .T. ) ;
#48 = DESIGN_CONTEXT ( 'detailed design', #135, 'design' ) ;
#49 = ORIENTED_EDGE ( 'NONE', *, *, #61, .T. ) ;
#50 = FACE_OUTER_BOUND ( 'NONE', #213, .T. ) ;
#51 = ORIENTED_EDGE ( 'NONE', *, *, #79, .F. ) ;
#52 = FACE_BOUND ( 'NONE', #217, .T. ) ;
#53 = DIRECTION ( 'NONE',  ( 1.000000000000000000, 0.0000000000000000000, 0.0000000000000000000 ) ) ;
#54 = FACE_OUTER_BOUND ( 'NONE', #130, .T. ) ;
#55 = COORDINATED_UNIVERSAL_TIME_OFFSET ( 1, 0, .AHEAD. ) ;
#56 = DIRECTION ( 'NONE',  ( -3.491481338843133355E-15, 9.031770143711729009E-17, -1.000000000000000000 ) ) ;
#57 = ADVANCED_FACE ( 'NONE', ( #54, #133 ), #182, .T. ) ;
#58 = DIRECTION ( 'NONE',  ( -3.153425691349006731E-31, -1.000000000000000000, -9.031770143711729009E-17 ) ) ;
#59 = CARTESIAN_POINT ( 'NONE',  ( 0.0000000000000000000, 0.0000000000000000000, 0.0000000000000000000 ) ) ;
#60 = ORIENTED_EDGE ( 'NONE', *, *, #12, .T. ) ;
#61 = EDGE_CURVE ( 'NONE', #183, #183, #5, .T. ) ;
#62 = AXIS2_PLACEMENT_3D ( 'NONE', #204, #112, #191 ) ;
#63 = APPLICATION_CONTEXT ( 'configuration controlled 3d designs of mechanical parts and assemblies' ) ;
#64 = PRODUCT_DEFINITION_SHAPE ( 'NONE', 'NONE',  #210 ) ;
#65 = DATE_AND_TIME ( #138, #43 ) ;
#66 = APPROVAL_ROLE ( '' ) ;
#67 = ADVANCED_FACE ( 'NONE', ( #78 ), #221, .T. ) ;
#68 = APPROVAL_DATE_TIME ( #65, #171 ) ;
#69 = CLOSED_SHELL ( 'NONE', ( #239, #57, #156, #67 ) ) ;
#70 = CARTESIAN_POINT ( 'NONE',  ( 4.380876175704499057E-14, -1.133245829122376452E-15, 12.54732805519177674 ) ) ;
#71 = CC_DESIGN_DATE_AND_TIME_ASSIGNMENT ( #140, #105, ( #210 ) ) ;
#72 = EDGE_LOOP ( 'NONE', ( #180 ) ) ;
#73 = AXIS2_PLACEMENT_3D ( 'NONE', #70, #142, #216 ) ;
#74 = CARTESIAN_POINT ( 'NONE',  ( 2.793185071074506684E-13, 1.599999999999987876, 80.00000000000000000 ) ) ;
#75 = CARTESIAN_POINT ( 'NONE',  ( 0.0000000000000000000, 0.0000000000000000000, 0.0000000000000000000 ) ) ;
#76 = DIRECTION ( 'NONE',  ( 0.0000000000000000000, 1.000000000000000000, 0.0000000000000000000 ) ) ;
#77 = AXIS2_PLACEMENT_3D ( 'NONE', #172, #21, #85 ) ;
#78 = FACE_OUTER_BOUND ( 'NONE', #162, .T. ) ;
#79 = EDGE_CURVE ( 'NONE', #189, #189, #88, .T. ) ;
#80 = CALENDAR_DATE ( 2021, 26, 11 ) ;
#81 = SHAPE_DEFINITION_REPRESENTATION ( #64, #136 ) ;
#82 = VERTEX_POINT ( 'NONE', #202 ) ;
#83 = DIRECTION ( 'NONE',  ( -3.491481338843133355E-15, -5.358882254033465933E-16, -1.000000000000000000 ) ) ;
#84 = VERTEX_POINT ( 'NONE', #164 ) ;
#85 = DIRECTION ( 'NONE',  ( -1.902824221695223760E-30, 1.000000000000000000, -5.355974034861352372E-16 ) ) ;
#86 = CARTESIAN_POINT ( 'NONE',  ( 4.870438912998221562E-30, 7.475368225473093767E-31, 1.394949146316214295E-15 ) ) ;
#87 = SECURITY_CLASSIFICATION ( '', '', #233 ) ;
#88 = CIRCLE ( 'NONE', #45, 2.603059892324148361 ) ;
#89 = ORGANIZATION ( 'UNSPECIFIED', 'UNSPECIFIED', '' ) ;
#90 = AXIS2_PLACEMENT_3D ( 'NONE', #206, #147, #100 ) ;
#91 = PERSON_AND_ORGANIZATION_ROLE ( 'design_supplier' ) ;
#92 = CIRCLE ( 'NONE', #104, 1.999999999999991784 ) ;
#93 = EDGE_LOOP ( 'NONE', ( #123 ) ) ;
#94 = DATE_AND_TIME ( #13, #209 ) ;
#95 = APPLICATION_PROTOCOL_DEFINITION ( 'international standard', 'config_control_design', 1994, #63 ) ;
#96 = FACE_OUTER_BOUND ( 'NONE', #234, .T. ) ;
#97 = PERSON_AND_ORGANIZATION_ROLE ( 'classification_officer' ) ;
#98 = CARTESIAN_POINT ( 'NONE',  ( 4.380876175704499688E-14, 2.833999999999998298, 12.54732805519177852 ) ) ;
#99 = APPROVAL_ROLE ( '' ) ;
#100 = DIRECTION ( 'NONE',  ( 0.0000000000000000000, 1.000000000000000000, 0.0000000000000000000 ) ) ;
#101 = FACE_OUTER_BOUND ( 'NONE', #72, .T. ) ;
#102 = ORIENTED_EDGE ( 'NONE', *, *, #12, .F. ) ;
#103 = EDGE_LOOP ( 'NONE', ( #199 ) ) ;
#104 = AXIS2_PLACEMENT_3D ( 'NONE', #24, #229, #192 ) ;
#105 = DATE_TIME_ROLE ( 'creation_date' ) ;
#106 = APPROVAL_STATUS ( 'not_yet_approved' ) ;
#107 = CARTESIAN_POINT ( 'NONE',  ( 4.380876175704499688E-14, 6.723965365050345426E-15, 12.54732805519177852 ) ) ;
#108 = CC_DESIGN_PERSON_AND_ORGANIZATION_ASSIGNMENT ( #39, #126, ( #141 ) ) ;
#109 = APPROVAL_STATUS ( 'not_yet_approved' ) ;
#110 = DIRECTION ( 'NONE',  ( -3.491481338843133355E-15, -5.358882254033465933E-16, -1.000000000000000000 ) ) ;
#111 = CARTESIAN_POINT ( 'NONE',  ( 4.380876175704499688E-14, 6.723965365050346215E-15, 12.54732805519177852 ) ) ;
#112 = DIRECTION ( 'NONE',  ( -3.491481338843133355E-15, -5.358882254033465933E-16, -1.000000000000000000 ) ) ;
#113 = APPROVAL_STATUS ( 'not_yet_approved' ) ;
#114 = CONICAL_SURFACE ( 'NONE', #145, 2.603059892324148361, 0.5235987755982978165 ) ;
#115 = APPLICATION_PROTOCOL_DEFINITION ( 'international standard', 'config_control_design', 1994, #135 ) ;
#116 = DIRECTION ( 'NONE',  ( -2.174656253365974916E-30, 1.000000000000000000, -6.121113182698702231E-16 ) ) ;
#117 = LOCAL_TIME ( 11, 4, 9.000000000000000000, #55 ) ;
#118 = DIRECTION ( 'NONE',  ( -1.871043738701547107E-30, 1.000000000000000000, -5.358882254033465933E-16 ) ) ;
#119 = CC_DESIGN_APPROVAL ( #176, ( #87 ) ) ;
#120 = COORDINATED_UNIVERSAL_TIME_OFFSET ( 1, 0, .AHEAD. ) ;
#121 = APPROVAL_DATE_TIME ( #218, #224 ) ;
#122 = ORIENTED_EDGE ( 'NONE', *, *, #61, .F. ) ;
#123 = ORIENTED_EDGE ( 'NONE', *, *, #197, .T. ) ;
#124 = CC_DESIGN_DATE_AND_TIME_ASSIGNMENT ( #94, #32, ( #87 ) ) ;
#125 = EDGE_LOOP ( 'NONE', ( #122 ) ) ;
#126 = PERSON_AND_ORGANIZATION_ROLE ( 'design_owner' ) ;
#127 = CC_DESIGN_PERSON_AND_ORGANIZATION_ASSIGNMENT ( #146, #31, ( #210 ) ) ;
#128 = PERSON_AND_ORGANIZATION ( #178, #89 ) ;
#129 = FACE_BOUND ( 'NONE', #103, .T. ) ;
#130 = EDGE_LOOP ( 'NONE', ( #36 ) ) ;
#131 = ORIENTED_EDGE ( 'NONE', *, *, #187, .F. ) ;
#132 = AXIS2_PLACEMENT_3D ( 'NONE', #111, #185, #207 ) ;
#133 = FACE_OUTER_BOUND ( 'NONE', #125, .T. ) ;
#134 = PRODUCT_RELATED_PRODUCT_CATEGORY ( 'detail', '', ( #141 ) ) ;
#135 = APPLICATION_CONTEXT ( 'configuration controlled 3d designs of mechanical parts and assemblies' ) ;
#136 = ADVANCED_BREP_SHAPE_REPRESENTATION ( '321470', ( #194, #30, #212 ), #9 ) ;
#137 = ADVANCED_FACE ( 'NONE', ( #129, #208 ), #215, .T. ) ;
#138 = CALENDAR_DATE ( 2021, 26, 11 ) ;
#139 = CC_DESIGN_APPROVAL ( #224, ( #235 ) ) ;
#140 = DATE_AND_TIME ( #26, #198 ) ;
#141 = PRODUCT ( '321470', '321470', '', ( #153 ) ) ;
#142 = DIRECTION ( 'NONE',  ( -3.491481338843133355E-15, 9.031770143711729009E-17, -1.000000000000000000 ) ) ;
#143 = ADVANCED_FACE ( 'NONE', ( #150 ), #42, .T. ) ;
#144 = DIRECTION ( 'NONE',  ( 0.0000000000000000000, 1.000000000000000000, 0.0000000000000000000 ) ) ;
#145 = AXIS2_PLACEMENT_3D ( 'NONE', #86, #158, #174 ) ;
#146 = PERSON_AND_ORGANIZATION ( #178, #89 ) ;
#147 = DIRECTION ( 'NONE',  ( -3.491481338843133355E-15, 9.031770143711729009E-17, -1.000000000000000000 ) ) ;
#148 = CARTESIAN_POINT ( 'NONE',  ( 4.380876175704499057E-14, 2.833999999999998298, 12.54732805519177674 ) ) ;
#149 = VERTEX_POINT ( 'NONE', #74 ) ;
#150 = FACE_OUTER_BOUND ( 'NONE', #184, .T. ) ;
#151 = APPROVAL_PERSON_ORGANIZATION ( #152, #176, #99 ) ;
#152 = PERSON_AND_ORGANIZATION ( #178, #89 ) ;
#153 = MECHANICAL_CONTEXT ( 'NONE', #63, 'mechanical' ) ;
#154 = CARTESIAN_POINT ( 'NONE',  ( 2.779219145719134403E-13, -7.189289034394536528E-15, 79.60000000000000853 ) ) ;
#155 = CONICAL_SURFACE ( 'NONE', #90, 2.833999999999999631, 0.5235987755982933756 ) ;
#156 = ADVANCED_FACE ( 'NONE', ( #23, #52 ), #114, .T. ) ;
#157 = AXIS2_PLACEMENT_3D ( 'NONE', #41, #110, #190 ) ;
#158 = DIRECTION ( 'NONE',  ( 3.491481338843133355E-15, 5.358882254033465933E-16, 1.000000000000000000 ) ) ;
#159 = AXIS2_PLACEMENT_3D ( 'NONE', #34, #38, #58 ) ;
#160 = CC_DESIGN_SECURITY_CLASSIFICATION ( #87, ( #235 ) ) ;
#161 = PERSON_AND_ORGANIZATION ( #178, #89 ) ;
#162 = EDGE_LOOP ( 'NONE', ( #7 ) ) ;
#163 = AXIS2_PLACEMENT_3D ( 'NONE', #98, #56, #19 ) ;
#164 = CARTESIAN_POINT ( 'NONE',  ( 4.380876175704499057E-14, 2.833999999999998298, 12.54732805519177674 ) ) ;
#165 = EDGE_LOOP ( 'NONE', ( #2 ) ) ;
#166 = CARTESIAN_POINT ( 'NONE',  ( 2.779219145719134403E-13, -7.189289034394536528E-15, 79.60000000000000853 ) ) ;
#167 = DIRECTION ( 'NONE',  ( 3.153425691349006731E-31, 1.000000000000000000, 9.031770143711729009E-17 ) ) ;
#168 = CIRCLE ( 'NONE', #177, 2.833999999999991637 ) ;
#169 = APPROVAL_DATE_TIME ( #16, #176 ) ;
#170 = FACE_BOUND ( 'NONE', #165, .T. ) ;
#171 = APPROVAL ( #109, 'UNSPECIFIED' ) ;
#172 = CARTESIAN_POINT ( 'NONE',  ( 1.396592535537258470E-15, 2.143552901613394163E-16, 0.4000000000000014655 ) ) ;
#173 = EDGE_CURVE ( 'NONE', #35, #35, #92, .T. ) ;
#174 = DIRECTION ( 'NONE',  ( 1.871043738701547107E-30, -1.000000000000000000, 5.358882254033465933E-16 ) ) ;
#175 = CIRCLE ( 'NONE', #73, 2.833999999999999631 ) ;
#176 = APPROVAL ( #106, 'UNSPECIFIED' ) ;
#177 = AXIS2_PLACEMENT_3D ( 'NONE', #107, #223, #116 ) ;
#178 = PERSON ( 'UNSPECIFIED', 'UNSPECIFIED', 'UNSPECIFIED', ('UNSPECIFIED'), ('UNSPECIFIED'), ('UNSPECIFIED') ) ;
#179 = PERSON_AND_ORGANIZATION ( #178, #89 ) ;
#180 = ORIENTED_EDGE ( 'NONE', *, *, #47, .F. ) ;
#181 =( NAMED_UNIT ( * ) SI_UNIT ( $, .STERADIAN. ) SOLID_ANGLE_UNIT ( ) );
#182 = CYLINDRICAL_SURFACE ( 'NONE', #157, 2.833999999999994301 ) ;
#183 = VERTEX_POINT ( 'NONE', #14 ) ;
#184 = EDGE_LOOP ( 'NONE', ( #131 ) ) ;
#185 = DIRECTION ( 'NONE',  ( 3.491481338843133355E-15, 5.358882254033465933E-16, 1.000000000000000000 ) ) ;
#186 = PLANE ( 'NONE',  #163 ) ;
#187 = EDGE_CURVE ( 'NONE', #149, #149, #228, .T. ) ;
#188 = CIRCLE ( 'NONE', #231, 1.999999999999995337 ) ;
#189 = VERTEX_POINT ( 'NONE', #222 ) ;
#190 = DIRECTION ( 'NONE',  ( -1.871043738701547457E-30, 1.000000000000000000, -5.358882254033465933E-16 ) ) ;
#191 = DIRECTION ( 'NONE',  ( -1.871043738701547457E-30, 1.000000000000000000, -5.358882254033465933E-16 ) ) ;
#192 = DIRECTION ( 'NONE',  ( 0.0000000000000000000, 1.000000000000000000, 0.0000000000000000000 ) ) ;
#193 = COORDINATED_UNIVERSAL_TIME_OFFSET ( 1, 0, .AHEAD. ) ;
#194 = MANIFOLD_SOLID_BREP ( 'Corps-Déplacer/Copier1[1]', #10 ) ;
#195 = AXIS2_PLACEMENT_3D ( 'NONE', #154, #226, #76 ) ;
#196 = EDGE_LOOP ( 'NONE', ( #27 ) ) ;
#197 = EDGE_CURVE ( 'NONE', #84, #84, #175, .T. ) ;
#198 = LOCAL_TIME ( 11, 4, 9.000000000000000000, #120 ) ;
#199 = ORIENTED_EDGE ( 'NONE', *, *, #187, .T. ) ;
#200 = COORDINATED_UNIVERSAL_TIME_OFFSET ( 1, 0, .AHEAD. ) ;
#201 =( NAMED_UNIT ( * ) PLANE_ANGLE_UNIT ( ) SI_UNIT ( $, .RADIAN. ) );
#202 = CARTESIAN_POINT ( 'NONE',  ( 2.779219145719134403E-13, 1.999999999999988010, 79.60000000000000853 ) ) ;
#203 = CC_DESIGN_PERSON_AND_ORGANIZATION_ASSIGNMENT ( #179, #91, ( #235 ) ) ;
#204 = CARTESIAN_POINT ( 'NONE',  ( -2.435219456499110781E-30, 2.603059892324148361, -6.974745731581071477E-16 ) ) ;
#205 = CYLINDRICAL_SURFACE ( 'NONE', #25, 1.999999999999993561 ) ;
#206 = CARTESIAN_POINT ( 'NONE',  ( 4.380876175704499057E-14, -1.133245829122376452E-15, 12.54732805519177674 ) ) ;
#207 = DIRECTION ( 'NONE',  ( 1.871043738701547457E-30, -1.000000000000000000, 5.358882254033465933E-16 ) ) ;
#208 = FACE_OUTER_BOUND ( 'NONE', #227, .T. ) ;
#209 = LOCAL_TIME ( 11, 4, 9.000000000000000000, #219 ) ;
#210 = PRODUCT_DEFINITION ( 'UNKNOWN', '', #235, #48 ) ;
#211 = CARTESIAN_POINT ( 'NONE',  ( 2.793185071074506684E-13, -7.225416114969383207E-15, 80.00000000000000000 ) ) ;
#212 = AXIS2_PLACEMENT_3D ( 'NONE', #59, #236, #53 ) ;
#213 = EDGE_LOOP ( 'NONE', ( #60 ) ) ;
#214 = UNCERTAINTY_MEASURE_WITH_UNIT (LENGTH_MEASURE( 1.000000000000000082E-05 ), #17, 'distance_accuracy_value', 'NONE');
#215 = CONICAL_SURFACE ( 'NONE', #195, 1.999999999999995337, 0.7853981633974516097 ) ;
#216 = DIRECTION ( 'NONE',  ( 0.0000000000000000000, 1.000000000000000000, 0.0000000000000000000 ) ) ;
#217 = EDGE_LOOP ( 'NONE', ( #51 ) ) ;
#218 = DATE_AND_TIME ( #80, #11 ) ;
#219 = COORDINATED_UNIVERSAL_TIME_OFFSET ( 1, 0, .AHEAD. ) ;
#220 = CC_DESIGN_PERSON_AND_ORGANIZATION_ASSIGNMENT ( #29, #232, ( #235 ) ) ;
#221 = PLANE ( 'NONE',  #62 ) ;
#222 = CARTESIAN_POINT ( 'NONE',  ( 0.0000000000000000000, 2.603059892324148361, 0.0000000000000000000 ) ) ;
#223 = DIRECTION ( 'NONE',  ( -3.491481338843133355E-15, -5.358882254033465933E-16, -1.000000000000000000 ) ) ;
#224 = APPROVAL ( #113, 'UNSPECIFIED' ) ;
#225 = DIRECTION ( 'NONE',  ( 0.0000000000000000000, 1.000000000000000000, 0.0000000000000000000 ) ) ;
#226 = DIRECTION ( 'NONE',  ( -3.491481338843133355E-15, 9.031770143711729009E-17, -1.000000000000000000 ) ) ;
#227 = EDGE_LOOP ( 'NONE', ( #102 ) ) ;
#228 = CIRCLE ( 'NONE', #40, 1.599999999999994982 ) ;
#229 = DIRECTION ( 'NONE',  ( -3.491481338843133355E-15, 9.031770143711729009E-17, -1.000000000000000000 ) ) ;
#230 = ADVANCED_FACE ( 'NONE', ( #50, #20 ), #205, .T. ) ;
#231 = AXIS2_PLACEMENT_3D ( 'NONE', #166, #15, #225 ) ;
#232 = PERSON_AND_ORGANIZATION_ROLE ( 'creator' ) ;
#233 = SECURITY_CLASSIFICATION_LEVEL ( 'unclassified' ) ;
#234 = EDGE_LOOP ( 'NONE', ( #18 ) ) ;
#235 = PRODUCT_DEFINITION_FORMATION_WITH_SPECIFIED_SOURCE ( 'ANY', '', #141, .NOT_KNOWN. ) ;
#236 = DIRECTION ( 'NONE',  ( 0.0000000000000000000, 0.0000000000000000000, 1.000000000000000000 ) ) ;
#237 = CALENDAR_DATE ( 2021, 26, 11 ) ;
#238 = FACE_OUTER_BOUND ( 'NONE', #93, .T. ) ;
#239 = ADVANCED_FACE ( 'NONE', ( #101 ), #33, .T. ) ;
#240 = CC_DESIGN_APPROVAL ( #171, ( #210 ) ) ;
#241 = APPROVAL_ROLE ( '' ) ;
#242 = CARTESIAN_POINT ( 'NONE',  ( 4.885231259955590439E-14, 1.999999999999990452, 13.99185842870425134 ) ) ;
#243 = CARTESIAN_POINT ( 'NONE',  ( 4.870438912998221562E-30, 7.475368225473093767E-31, 1.394949146316214295E-15 ) ) ;
ENDSEC;
END-ISO-10303-21;
