ISO-10303-21;
HEADER;
FILE_DESCRIPTION (( 'STEP AP203' ),
    '1' );
FILE_NAME ('321469.step',
    '2021-11-26T10:04:08',
    ( '' ),
    ( '' ),
    'SwSTEP 2.0',
    'SolidWorks 2019',
    '' );
FILE_SCHEMA (( 'CONFIG_CONTROL_DESIGN' ));
ENDSEC;

DATA;
#1 = MANIFOLD_SOLID_BREP ( 'Corps-Déplacer/Copier1[1]', #207 ) ;
#2 = AXIS2_PLACEMENT_3D ( 'NONE', #121, #62, #192 ) ;
#3 = EDGE_CURVE ( 'NONE', #80, #80, #119, .T. ) ;
#4 = CARTESIAN_POINT ( 'NONE',  ( 4.885231259955590439E-14, 1.999999999999990452, 13.99185842870425134 ) ) ;
#5 = FACE_OUTER_BOUND ( 'NONE', #10, .T. ) ;
#6 = CYLINDRICAL_SURFACE ( 'NONE', #220, 2.828999999999995296 ) ;
#7 = AXIS2_PLACEMENT_3D ( 'NONE', #228, #64, #45 ) ;
#8 = DIRECTION ( 'NONE',  ( -3.491481338843133355E-15, 9.031770143711729009E-17, -1.000000000000000000 ) ) ;
#9 = FACE_OUTER_BOUND ( 'NONE', #139, .T. ) ;
#10 = EDGE_LOOP ( 'NONE', ( #177 ) ) ;
#11 = DATE_TIME_ROLE ( 'classification_date' ) ;
#12 = LOCAL_TIME ( 11, 4, 8.000000000000000000, #176 ) ;
#13 = EDGE_LOOP ( 'NONE', ( #106 ) ) ;
#14 = PERSON_AND_ORGANIZATION ( #230, #59 ) ;
#15 = CC_DESIGN_PERSON_AND_ORGANIZATION_ASSIGNMENT ( #234, #217, ( #44 ) ) ;
#16 = APPROVAL_PERSON_ORGANIZATION ( #240, #183, #31 ) ;
#17 = ORIENTED_EDGE ( 'NONE', *, *, #30, .F. ) ;
#18 = APPLICATION_PROTOCOL_DEFINITION ( 'international standard', 'config_control_design', 1994, #243 ) ;
#19 = FACE_BOUND ( 'NONE', #124, .T. ) ;
#20 = CARTESIAN_POINT ( 'NONE',  ( 0.0000000000000000000, 0.0000000000000000000, 0.0000000000000000000 ) ) ;
#21 = DIRECTION ( 'NONE',  ( -3.491481338843133355E-15, 9.031770143711729009E-17, -1.000000000000000000 ) ) ;
#22 = VERTEX_POINT ( 'NONE', #76 ) ;
#23 = CONICAL_SURFACE ( 'NONE', #2, 2.598059892324148468, 0.5235987755982978165 ) ;
#24 = DIRECTION ( 'NONE',  ( -1.869163387205473328E-30, 1.000000000000000000, -5.353496713302787968E-16 ) ) ;
#25 = PERSON_AND_ORGANIZATION_ROLE ( 'design_supplier' ) ;
#26 = APPROVAL_STATUS ( 'not_yet_approved' ) ;
#27 = AXIS2_PLACEMENT_3D ( 'NONE', #136, #154, #205 ) ;
#28 = ORIENTED_EDGE ( 'NONE', *, *, #3, .T. ) ;
#29 = ORIENTED_EDGE ( 'NONE', *, *, #57, .T. ) ;
#30 = EDGE_CURVE ( 'NONE', #188, #188, #83, .T. ) ;
#31 = APPROVAL_ROLE ( '' ) ;
#32 = CARTESIAN_POINT ( 'NONE',  ( 0.0000000000000000000, 0.0000000000000000000, 0.0000000000000000000 ) ) ;
#33 = CLOSED_SHELL ( 'NONE', ( #39, #162, #239, #158 ) ) ;
#34 = APPROVAL_PERSON_ORGANIZATION ( #52, #206, #178 ) ;
#35 = ADVANCED_FACE ( 'NONE', ( #19, #221 ), #184, .T. ) ;
#36 = AXIS2_PLACEMENT_3D ( 'NONE', #168, #61, #202 ) ;
#37 = CC_DESIGN_DATE_AND_TIME_ASSIGNMENT ( #219, #11, ( #222 ) ) ;
#38 = VERTEX_POINT ( 'NONE', #181 ) ;
#39 = ADVANCED_FACE ( 'NONE', ( #161 ), #54, .T. ) ;
#40 = FACE_OUTER_BOUND ( 'NONE', #218, .T. ) ;
#41 = FACE_OUTER_BOUND ( 'NONE', #233, .T. ) ;
#42 = DESIGN_CONTEXT ( 'detailed design', #243, 'design' ) ;
#43 = FACE_BOUND ( 'NONE', #175, .T. ) ;
#44 = PRODUCT_DEFINITION ( 'UNKNOWN', '', #173, #42 ) ;
#45 = DIRECTION ( 'NONE',  ( 3.153425691349006731E-31, 1.000000000000000000, 9.031770143711729009E-17 ) ) ;
#46 = EDGE_LOOP ( 'NONE', ( #171 ) ) ;
#47 =( LENGTH_UNIT ( ) NAMED_UNIT ( * ) SI_UNIT ( .MILLI., .METRE. ) );
#48 = ORIENTED_EDGE ( 'NONE', *, *, #148, .T. ) ;
#49 = PERSON_AND_ORGANIZATION ( #230, #59 ) ;
#50 = ORIENTED_EDGE ( 'NONE', *, *, #123, .F. ) ;
#51 = PERSON_AND_ORGANIZATION_ROLE ( 'creator' ) ;
#52 = PERSON_AND_ORGANIZATION ( #230, #59 ) ;
#53 = CC_DESIGN_APPROVAL ( #206, ( #173 ) ) ;
#54 = PLANE ( 'NONE',  #163 ) ;
#55 = APPROVAL_DATE_TIME ( #73, #199 ) ;
#56 = AXIS2_PLACEMENT_3D ( 'NONE', #132, #71, #242 ) ;
#57 = EDGE_CURVE ( 'NONE', #164, #164, #209, .T. ) ;
#58 = VERTEX_POINT ( 'NONE', #134 ) ;
#59 = ORGANIZATION ( 'UNSPECIFIED', 'UNSPECIFIED', '' ) ;
#60 = CARTESIAN_POINT ( 'NONE',  ( 4.856198428499292143E-30, 7.446020700981657717E-31, 1.390870509452112401E-15 ) ) ;
#61 = DIRECTION ( 'NONE',  ( -3.491481338843133355E-15, -5.353496713302787968E-16, -1.000000000000000000 ) ) ;
#62 = DIRECTION ( 'NONE',  ( 3.491481338843133355E-15, 5.353496713302787968E-16, 1.000000000000000000 ) ) ;
#63 =( GEOMETRIC_REPRESENTATION_CONTEXT ( 3 ) GLOBAL_UNCERTAINTY_ASSIGNED_CONTEXT ( ( #231 ) ) GLOBAL_UNIT_ASSIGNED_CONTEXT ( ( #47, #87, #172 ) ) REPRESENTATION_CONTEXT ( 'NONE', 'WORKASPACE' ) );
#64 = DIRECTION ( 'NONE',  ( -3.491481338843133355E-15, 9.031770143711729009E-17, -1.000000000000000000 ) ) ;
#65 = ORIENTED_EDGE ( 'NONE', *, *, #170, .F. ) ;
#66 = APPROVAL_ROLE ( '' ) ;
#67 = EDGE_LOOP ( 'NONE', ( #17 ) ) ;
#68 = COORDINATED_UNIVERSAL_TIME_OFFSET ( 1, 0, .AHEAD. ) ;
#69 = AXIS2_PLACEMENT_3D ( 'NONE', #157, #235, #146 ) ;
#70 = DATE_AND_TIME ( #144, #12 ) ;
#71 = DIRECTION ( 'NONE',  ( -3.491481338843133355E-15, 9.031770143711729009E-17, -1.000000000000000000 ) ) ;
#72 = ADVANCED_FACE ( 'NONE', ( #225 ), #101, .T. ) ;
#73 = DATE_AND_TIME ( #215, #198 ) ;
#74 = LOCAL_TIME ( 11, 4, 8.000000000000000000, #89 ) ;
#75 = AXIS2_PLACEMENT_3D ( 'NONE', #60, #204, #82 ) ;
#76 = CARTESIAN_POINT ( 'NONE',  ( 1.396592535537253342E-15, 2.828999999999997961, 0.3999999999999999667 ) ) ;
#77 = ADVANCED_FACE ( 'NONE', ( #9, #187 ), #120, .T. ) ;
#78 = DIRECTION ( 'NONE',  ( -3.153425691349006731E-31, -1.000000000000000000, -9.031770143711729009E-17 ) ) ;
#79 = CARTESIAN_POINT ( 'NONE',  ( -2.428099214249646072E-30, 2.598059892324148468, -6.954352547260562004E-16 ) ) ;
#80 = VERTEX_POINT ( 'NONE', #97 ) ;
#81 = CC_DESIGN_PERSON_AND_ORGANIZATION_ASSIGNMENT ( #14, #174, ( #222 ) ) ;
#82 = DIRECTION ( 'NONE',  ( -1.869163387205473328E-30, 1.000000000000000000, -5.353496713302787968E-16 ) ) ;
#83 = CIRCLE ( 'NONE', #69, 2.828999999999992188 ) ;
#84 = EDGE_LOOP ( 'NONE', ( #193 ) ) ;
#85 = APPROVAL_STATUS ( 'not_yet_approved' ) ;
#86 = DIRECTION ( 'NONE',  ( 0.0000000000000000000, 1.000000000000000000, 0.0000000000000000000 ) ) ;
#87 =( NAMED_UNIT ( * ) PLANE_ANGLE_UNIT ( ) SI_UNIT ( $, .RADIAN. ) );
#88 = ADVANCED_BREP_SHAPE_REPRESENTATION ( '321469', ( #1, #241, #125 ), #63 ) ;
#89 = COORDINATED_UNIVERSAL_TIME_OFFSET ( 1, 0, .AHEAD. ) ;
#90 = LOCAL_TIME ( 11, 4, 8.000000000000000000, #145 ) ;
#91 = DATE_AND_TIME ( #128, #90 ) ;
#92 = CC_DESIGN_PERSON_AND_ORGANIZATION_ASSIGNMENT ( #108, #25, ( #173 ) ) ;
#93 = CARTESIAN_POINT ( 'NONE',  ( 4.885231259955590439E-14, -1.263712492114123682E-15, 13.99185842870425134 ) ) ;
#94 = PRODUCT ( '321469', '321469', '', ( #131 ) ) ;
#95 = APPROVAL_PERSON_ORGANIZATION ( #155, #199, #66 ) ;
#96 = SHAPE_DEFINITION_REPRESENTATION ( #127, #88 ) ;
#97 = CARTESIAN_POINT ( 'NONE',  ( 2.779219145719134403E-13, 1.999999999999988010, 79.60000000000000853 ) ) ;
#98 = CARTESIAN_POINT ( 'NONE',  ( 4.383899887240776561E-14, -1.134028003360935945E-15, 12.55598830922962073 ) ) ;
#99 = CARTESIAN_POINT ( 'NONE',  ( 2.793185071074506684E-13, -7.225416114969383207E-15, 80.00000000000000000 ) ) ;
#100 = EDGE_CURVE ( 'NONE', #22, #22, #149, .T. ) ;
#101 = PLANE ( 'NONE',  #186 ) ;
#102 = CARTESIAN_POINT ( 'NONE',  ( 0.0000000000000000000, 0.0000000000000000000, 0.0000000000000000000 ) ) ;
#103 = CALENDAR_DATE ( 2021, 26, 11 ) ;
#104 = CC_DESIGN_APPROVAL ( #199, ( #222 ) ) ;
#105 = PERSON_AND_ORGANIZATION ( #230, #59 ) ;
#106 = ORIENTED_EDGE ( 'NONE', *, *, #3, .F. ) ;
#107 = EDGE_LOOP ( 'NONE', ( #50 ) ) ;
#108 = PERSON_AND_ORGANIZATION ( #230, #59 ) ;
#109 = EDGE_LOOP ( 'NONE', ( #65 ) ) ;
#110 = APPLICATION_PROTOCOL_DEFINITION ( 'international standard', 'config_control_design', 1994, #201 ) ;
#111 = CIRCLE ( 'NONE', #185, 2.828999999999999737 ) ;
#112 = PRODUCT_RELATED_PRODUCT_CATEGORY ( 'detail', '', ( #94 ) ) ;
#113 = DIRECTION ( 'NONE',  ( 1.869163387205473328E-30, -1.000000000000000000, 5.353496713302787968E-16 ) ) ;
#114 = AXIS2_PLACEMENT_3D ( 'NONE', #93, #227, #137 ) ;
#115 = CIRCLE ( 'NONE', #75, 2.598059892324148468 ) ;
#116 = PLANE ( 'NONE',  #7 ) ;
#117 = FACE_OUTER_BOUND ( 'NONE', #107, .T. ) ;
#118 = FACE_OUTER_BOUND ( 'NONE', #129, .T. ) ;
#119 = CIRCLE ( 'NONE', #167, 1.999999999999995337 ) ;
#120 = CYLINDRICAL_SURFACE ( 'NONE', #216, 1.999999999999993561 ) ;
#121 = CARTESIAN_POINT ( 'NONE',  ( 4.856198428499292143E-30, 7.446020700981657717E-31, 1.390870509452112401E-15 ) ) ;
#122 = DIRECTION ( 'NONE',  ( -3.491481338843133355E-15, 9.031770143711729009E-17, -1.000000000000000000 ) ) ;
#123 = EDGE_CURVE ( 'NONE', #150, #150, #111, .T. ) ;
#124 = EDGE_LOOP ( 'NONE', ( #48 ) ) ;
#125 = AXIS2_PLACEMENT_3D ( 'NONE', #32, #236, #238 ) ;
#126 = SECURITY_CLASSIFICATION_LEVEL ( 'unclassified' ) ;
#127 = PRODUCT_DEFINITION_SHAPE ( 'NONE', 'NONE',  #44 ) ;
#128 = CALENDAR_DATE ( 2021, 26, 11 ) ;
#129 = EDGE_LOOP ( 'NONE', ( #143 ) ) ;
#130 = CC_DESIGN_PERSON_AND_ORGANIZATION_ASSIGNMENT ( #105, #51, ( #173 ) ) ;
#131 = MECHANICAL_CONTEXT ( 'NONE', #201, 'mechanical' ) ;
#132 = CARTESIAN_POINT ( 'NONE',  ( 2.779219145719134403E-13, -7.189289034394536528E-15, 79.60000000000000853 ) ) ;
#133 = CC_DESIGN_DATE_AND_TIME_ASSIGNMENT ( #91, #194, ( #44 ) ) ;
#134 = CARTESIAN_POINT ( 'NONE',  ( 2.793185071074506684E-13, 1.599999999999987876, 80.00000000000000000 ) ) ;
#135 = DIRECTION ( 'NONE',  ( -3.491481338843133355E-15, 9.031770143711729009E-17, -1.000000000000000000 ) ) ;
#136 = CARTESIAN_POINT ( 'NONE',  ( 4.383899887240776561E-14, -1.134028003360935945E-15, 12.55598830922962073 ) ) ;
#137 = DIRECTION ( 'NONE',  ( 0.0000000000000000000, 1.000000000000000000, 0.0000000000000000000 ) ) ;
#138 = FACE_BOUND ( 'NONE', #109, .T. ) ;
#139 = EDGE_LOOP ( 'NONE', ( #28 ) ) ;
#140 = CALENDAR_DATE ( 2021, 26, 11 ) ;
#141 = PERSON_AND_ORGANIZATION_ROLE ( 'design_owner' ) ;
#142 = ADVANCED_FACE ( 'NONE', ( #43, #117 ), #203, .T. ) ;
#143 = ORIENTED_EDGE ( 'NONE', *, *, #100, .T. ) ;
#144 = CALENDAR_DATE ( 2021, 26, 11 ) ;
#145 = COORDINATED_UNIVERSAL_TIME_OFFSET ( 1, 0, .AHEAD. ) ;
#146 = DIRECTION ( 'NONE',  ( -2.178499760353188974E-30, 1.000000000000000000, -6.131931693095835437E-16 ) ) ;
#147 = CC_DESIGN_APPROVAL ( #183, ( #44 ) ) ;
#148 = EDGE_CURVE ( 'NONE', #58, #58, #180, .T. ) ;
#149 = CIRCLE ( 'NONE', #36, 2.828999999999997961 ) ;
#150 = VERTEX_POINT ( 'NONE', #223 ) ;
#151 = DIRECTION ( 'NONE',  ( -3.491481338843133355E-15, -5.353496713302787968E-16, -1.000000000000000000 ) ) ;
#152 = DIRECTION ( 'NONE',  ( 0.0000000000000000000, 1.000000000000000000, 0.0000000000000000000 ) ) ;
#153 = DIRECTION ( 'NONE',  ( 3.153425691349006731E-31, 1.000000000000000000, 9.031770143711729009E-17 ) ) ;
#154 = DIRECTION ( 'NONE',  ( -3.491481338843133355E-15, 9.031770143711729009E-17, -1.000000000000000000 ) ) ;
#155 = PERSON_AND_ORGANIZATION ( #230, #59 ) ;
#156 = APPROVAL_DATE_TIME ( #70, #183 ) ;
#157 = CARTESIAN_POINT ( 'NONE',  ( 4.383899887240777192E-14, 6.721844214572900859E-15, 12.55598830922962250 ) ) ;
#158 = ADVANCED_FACE ( 'NONE', ( #166 ), #191, .T. ) ;
#159 = ORIENTED_EDGE ( 'NONE', *, *, #100, .F. ) ;
#160 = APPROVAL_DATE_TIME ( #197, #206 ) ;
#161 = FACE_OUTER_BOUND ( 'NONE', #67, .T. ) ;
#162 = ADVANCED_FACE ( 'NONE', ( #5, #40 ), #6, .T. ) ;
#163 = AXIS2_PLACEMENT_3D ( 'NONE', #200, #182, #113 ) ;
#164 = VERTEX_POINT ( 'NONE', #4 ) ;
#165 = CARTESIAN_POINT ( 'NONE',  ( 2.793185071074506684E-13, -7.225416114969383207E-15, 80.00000000000000000 ) ) ;
#166 = FACE_OUTER_BOUND ( 'NONE', #179, .T. ) ;
#167 = AXIS2_PLACEMENT_3D ( 'NONE', #213, #122, #86 ) ;
#168 = CARTESIAN_POINT ( 'NONE',  ( 1.396592535537258470E-15, 2.141398685321123174E-16, 0.4000000000000014655 ) ) ;
#169 = DIRECTION ( 'NONE',  ( -1.869163387205472978E-30, 1.000000000000000000, -5.353496713302787968E-16 ) ) ;
#170 = EDGE_CURVE ( 'NONE', #38, #38, #115, .T. ) ;
#171 = ORIENTED_EDGE ( 'NONE', *, *, #57, .F. ) ;
#172 =( NAMED_UNIT ( * ) SI_UNIT ( $, .STERADIAN. ) SOLID_ANGLE_UNIT ( ) );
#173 = PRODUCT_DEFINITION_FORMATION_WITH_SPECIFIED_SOURCE ( 'ANY', '', #94, .NOT_KNOWN. ) ;
#174 = PERSON_AND_ORGANIZATION_ROLE ( 'classification_officer' ) ;
#175 = EDGE_LOOP ( 'NONE', ( #29 ) ) ;
#176 = COORDINATED_UNIVERSAL_TIME_OFFSET ( 1, 0, .AHEAD. ) ;
#177 = ORIENTED_EDGE ( 'NONE', *, *, #30, .T. ) ;
#178 = APPROVAL_ROLE ( '' ) ;
#179 = EDGE_LOOP ( 'NONE', ( #196 ) ) ;
#180 = CIRCLE ( 'NONE', #210, 1.599999999999994982 ) ;
#181 = CARTESIAN_POINT ( 'NONE',  ( -6.842277657836020854E-46, 2.598059892324148468, 0.0000000000000000000 ) ) ;
#182 = DIRECTION ( 'NONE',  ( 3.491481338843133355E-15, 5.353496713302787968E-16, 1.000000000000000000 ) ) ;
#183 = APPROVAL ( #85, 'UNSPECIFIED' ) ;
#184 = CONICAL_SURFACE ( 'NONE', #56, 1.999999999999995337, 0.7853981633974516097 ) ;
#185 = AXIS2_PLACEMENT_3D ( 'NONE', #98, #21, #152 ) ;
#186 = AXIS2_PLACEMENT_3D ( 'NONE', #99, #208, #78 ) ;
#187 = FACE_OUTER_BOUND ( 'NONE', #46, .T. ) ;
#188 = VERTEX_POINT ( 'NONE', #189 ) ;
#189 = CARTESIAN_POINT ( 'NONE',  ( 4.383899887240776561E-14, 2.828999999999998405, 12.55598830922962073 ) ) ;
#190 = CC_DESIGN_PERSON_AND_ORGANIZATION_ASSIGNMENT ( #49, #141, ( #94 ) ) ;
#191 = PLANE ( 'NONE',  #211 ) ;
#192 = DIRECTION ( 'NONE',  ( 1.869163387205473679E-30, -1.000000000000000000, 5.353496713302787968E-16 ) ) ;
#193 = ORIENTED_EDGE ( 'NONE', *, *, #148, .F. ) ;
#194 = DATE_TIME_ROLE ( 'creation_date' ) ;
#195 = LOCAL_TIME ( 11, 4, 8.000000000000000000, #68 ) ;
#196 = ORIENTED_EDGE ( 'NONE', *, *, #170, .T. ) ;
#197 = DATE_AND_TIME ( #140, #195 ) ;
#198 = LOCAL_TIME ( 11, 4, 8.000000000000000000, #214 ) ;
#199 = APPROVAL ( #232, 'UNSPECIFIED' ) ;
#200 = CARTESIAN_POINT ( 'NONE',  ( 4.383899887240775930E-14, 6.721844214572899282E-15, 12.55598830922961895 ) ) ;
#201 = APPLICATION_CONTEXT ( 'configuration controlled 3d designs of mechanical parts and assemblies' ) ;
#202 = DIRECTION ( 'NONE',  ( -1.838109172797999639E-30, 1.000000000000000000, -5.365440231458845038E-16 ) ) ;
#203 = CONICAL_SURFACE ( 'NONE', #27, 2.828999999999999737, 0.5235987755982931535 ) ;
#204 = DIRECTION ( 'NONE',  ( -3.491481338843133355E-15, -5.353496713302787968E-16, -1.000000000000000000 ) ) ;
#205 = DIRECTION ( 'NONE',  ( 0.0000000000000000000, 1.000000000000000000, 0.0000000000000000000 ) ) ;
#206 = APPROVAL ( #26, 'UNSPECIFIED' ) ;
#207 = CLOSED_SHELL ( 'NONE', ( #72, #35, #77, #142, #226 ) ) ;
#208 = DIRECTION ( 'NONE',  ( 3.491481338843133355E-15, -9.031770143711729009E-17, 1.000000000000000000 ) ) ;
#209 = CIRCLE ( 'NONE', #114, 1.999999999999991784 ) ;
#210 = AXIS2_PLACEMENT_3D ( 'NONE', #165, #8, #212 ) ;
#211 = AXIS2_PLACEMENT_3D ( 'NONE', #79, #224, #24 ) ;
#212 = DIRECTION ( 'NONE',  ( 0.0000000000000000000, 1.000000000000000000, 0.0000000000000000000 ) ) ;
#213 = CARTESIAN_POINT ( 'NONE',  ( 2.779219145719134403E-13, -7.189289034394536528E-15, 79.60000000000000853 ) ) ;
#214 = COORDINATED_UNIVERSAL_TIME_OFFSET ( 1, 0, .AHEAD. ) ;
#215 = CALENDAR_DATE ( 2021, 26, 11 ) ;
#216 = AXIS2_PLACEMENT_3D ( 'NONE', #20, #135, #153 ) ;
#217 = PERSON_AND_ORGANIZATION_ROLE ( 'creator' ) ;
#218 = EDGE_LOOP ( 'NONE', ( #159 ) ) ;
#219 = DATE_AND_TIME ( #103, #74 ) ;
#220 = AXIS2_PLACEMENT_3D ( 'NONE', #102, #151, #169 ) ;
#221 = FACE_OUTER_BOUND ( 'NONE', #13, .T. ) ;
#222 = SECURITY_CLASSIFICATION ( '', '', #126 ) ;
#223 = CARTESIAN_POINT ( 'NONE',  ( 4.383899887240776561E-14, 2.828999999999998405, 12.55598830922962073 ) ) ;
#224 = DIRECTION ( 'NONE',  ( -3.491481338843133355E-15, -5.353496713302787968E-16, -1.000000000000000000 ) ) ;
#225 = FACE_OUTER_BOUND ( 'NONE', #84, .T. ) ;
#226 = ADVANCED_FACE ( 'NONE', ( #41 ), #116, .T. ) ;
#227 = DIRECTION ( 'NONE',  ( -3.491481338843133355E-15, 9.031770143711729009E-17, -1.000000000000000000 ) ) ;
#228 = CARTESIAN_POINT ( 'NONE',  ( 4.383899887240775930E-14, 2.828999999999998405, 12.55598830922961895 ) ) ;
#229 = CC_DESIGN_SECURITY_CLASSIFICATION ( #222, ( #173 ) ) ;
#230 = PERSON ( 'UNSPECIFIED', 'UNSPECIFIED', 'UNSPECIFIED', ('UNSPECIFIED'), ('UNSPECIFIED'), ('UNSPECIFIED') ) ;
#231 = UNCERTAINTY_MEASURE_WITH_UNIT (LENGTH_MEASURE( 1.000000000000000082E-05 ), #47, 'distance_accuracy_value', 'NONE');
#232 = APPROVAL_STATUS ( 'not_yet_approved' ) ;
#233 = EDGE_LOOP ( 'NONE', ( #237 ) ) ;
#234 = PERSON_AND_ORGANIZATION ( #230, #59 ) ;
#235 = DIRECTION ( 'NONE',  ( -3.491481338843133355E-15, -5.353496713302787968E-16, -1.000000000000000000 ) ) ;
#236 = DIRECTION ( 'NONE',  ( 0.0000000000000000000, 0.0000000000000000000, 1.000000000000000000 ) ) ;
#237 = ORIENTED_EDGE ( 'NONE', *, *, #123, .T. ) ;
#238 = DIRECTION ( 'NONE',  ( 1.000000000000000000, 0.0000000000000000000, 0.0000000000000000000 ) ) ;
#239 = ADVANCED_FACE ( 'NONE', ( #118, #138 ), #23, .T. ) ;
#240 = PERSON_AND_ORGANIZATION ( #230, #59 ) ;
#241 = MANIFOLD_SOLID_BREP ( 'Corps-Déplacer/Copier1[2]', #33 ) ;
#242 = DIRECTION ( 'NONE',  ( 0.0000000000000000000, 1.000000000000000000, 0.0000000000000000000 ) ) ;
#243 = APPLICATION_CONTEXT ( 'configuration controlled 3d designs of mechanical parts and assemblies' ) ;
ENDSEC;
END-ISO-10303-21;
