ISO-10303-21;
HEADER;
FILE_DESCRIPTION (( 'STEP AP203' ),
    '1' );
FILE_NAME ('321468.step',
    '2021-11-26T10:04:08',
    ( '' ),
    ( '' ),
    'SwSTEP 2.0',
    'SolidWorks 2019',
    '' );
FILE_SCHEMA (( 'CONFIG_CONTROL_DESIGN' ));
ENDSEC;

DATA;
#1 = DATE_TIME_ROLE ( 'creation_date' ) ;
#2 = CARTESIAN_POINT ( 'NONE',  ( 2.793185071074506684E-13, -7.225416114969383207E-15, 80.00000000000000000 ) ) ;
#3 = DIRECTION ( 'NONE',  ( -3.491481338843133355E-15, 9.031770143711729009E-17, -1.000000000000000000 ) ) ;
#4 = AXIS2_PLACEMENT_3D ( 'NONE', #240, #78, #141 ) ;
#5 = LOCAL_TIME ( 11, 4, 8.000000000000000000, #19 ) ;
#6 = ORIENTED_EDGE ( 'NONE', *, *, #131, .T. ) ;
#7 = ORIENTED_EDGE ( 'NONE', *, *, #150, .T. ) ;
#8 = ADVANCED_FACE ( 'NONE', ( #89, #38 ), #53, .T. ) ;
#9 = PLANE ( 'NONE',  #107 ) ;
#10 = ORIENTED_EDGE ( 'NONE', *, *, #150, .F. ) ;
#11 = CC_DESIGN_PERSON_AND_ORGANIZATION_ASSIGNMENT ( #147, #198, ( #48 ) ) ;
#12 =( LENGTH_UNIT ( ) NAMED_UNIT ( * ) SI_UNIT ( .MILLI., .METRE. ) );
#13 = APPROVAL_PERSON_ORGANIZATION ( #83, #37, #69 ) ;
#14 = SHAPE_DEFINITION_REPRESENTATION ( #92, #85 ) ;
#15 = PERSON_AND_ORGANIZATION ( #143, #63 ) ;
#16 = DIRECTION ( 'NONE',  ( 0.0000000000000000000, 1.000000000000000000, 0.0000000000000000000 ) ) ;
#17 = CARTESIAN_POINT ( 'NONE',  ( 6.842277657836020854E-46, 2.593059892324147686, 0.0000000000000000000 ) ) ;
#18 = FACE_OUTER_BOUND ( 'NONE', #197, .T. ) ;
#19 = COORDINATED_UNIVERSAL_TIME_OFFSET ( 1, 0, .AHEAD. ) ;
#20 = FACE_OUTER_BOUND ( 'NONE', #76, .T. ) ;
#21 = PRODUCT_DEFINITION_FORMATION_WITH_SPECIFIED_SOURCE ( 'ANY', '', #137, .NOT_KNOWN. ) ;
#22 = CC_DESIGN_PERSON_AND_ORGANIZATION_ASSIGNMENT ( #59, #203, ( #160 ) ) ;
#23 = CALENDAR_DATE ( 2021, 26, 11 ) ;
#24 = CARTESIAN_POINT ( 'NONE',  ( 4.386923598777055328E-14, 6.719723064095445249E-15, 12.56464856326746826 ) ) ;
#25 = CYLINDRICAL_SURFACE ( 'NONE', #126, 2.823999999999994515 ) ;
#26 = CARTESIAN_POINT ( 'NONE',  ( 4.386923598777055328E-14, 2.823999999999998067, 12.56464856326746826 ) ) ;
#27 = PERSON_AND_ORGANIZATION_ROLE ( 'design_supplier' ) ;
#28 = MANIFOLD_SOLID_BREP ( 'Corps-Déplacer/Copier1[1]', #238 ) ;
#29 = AXIS2_PLACEMENT_3D ( 'NONE', #202, #187, #206 ) ;
#30 = ORIENTED_EDGE ( 'NONE', *, *, #131, .F. ) ;
#31 = MANIFOLD_SOLID_BREP ( 'Corps-Déplacer/Copier1[2]', #46 ) ;
#32 = APPROVAL_ROLE ( '' ) ;
#33 = PERSON_AND_ORGANIZATION_ROLE ( 'creator' ) ;
#34 = ORIENTED_EDGE ( 'NONE', *, *, #64, .T. ) ;
#35 = CIRCLE ( 'NONE', #236, 2.823999999999997623 ) ;
#36 = AXIS2_PLACEMENT_3D ( 'NONE', #26, #207, #227 ) ;
#37 = APPROVAL ( #145, 'UNSPECIFIED' ) ;
#38 = FACE_BOUND ( 'NONE', #109, .T. ) ;
#39 = CARTESIAN_POINT ( 'NONE',  ( 1.396592535537253342E-15, 2.823999999999997623, 0.3999999999999999667 ) ) ;
#40 = DIRECTION ( 'NONE',  ( -3.491481338843133355E-15, 9.031770143711729009E-17, -1.000000000000000000 ) ) ;
#41 = PERSON_AND_ORGANIZATION ( #143, #63 ) ;
#42 = CARTESIAN_POINT ( 'NONE',  ( 2.779219145719134403E-13, -7.189289034394536528E-15, 79.60000000000000853 ) ) ;
#43 = FACE_BOUND ( 'NONE', #91, .T. ) ;
#44 = VERTEX_POINT ( 'NONE', #75 ) ;
#45 = DIRECTION ( 'NONE',  ( -1.867285627794888920E-30, 1.000000000000000000, -5.348118596600018052E-16 ) ) ;
#46 = CLOSED_SHELL ( 'NONE', ( #188, #122, #8, #234 ) ) ;
#47 = PERSON_AND_ORGANIZATION ( #143, #63 ) ;
#48 = SECURITY_CLASSIFICATION ( '', '', #108 ) ;
#49 = EDGE_LOOP ( 'NONE', ( #110 ) ) ;
#50 = UNCERTAINTY_MEASURE_WITH_UNIT (LENGTH_MEASURE( 1.000000000000000082E-05 ), #12, 'distance_accuracy_value', 'NONE');
#51 = CARTESIAN_POINT ( 'NONE',  ( 4.885231259955590439E-14, 1.999999999999990452, 13.99185842870425134 ) ) ;
#52 = EDGE_LOOP ( 'NONE', ( #34 ) ) ;
#53 = CONICAL_SURFACE ( 'NONE', #193, 2.593059892324147686, 0.5235987755982978165 ) ;
#54 = EDGE_CURVE ( 'NONE', #211, #211, #167, .T. ) ;
#55 = DIRECTION ( 'NONE',  ( 0.0000000000000000000, 0.0000000000000000000, 1.000000000000000000 ) ) ;
#56 = FACE_OUTER_BOUND ( 'NONE', #237, .T. ) ;
#57 = DIRECTION ( 'NONE',  ( -3.491481338843133355E-15, 9.031770143711729009E-17, -1.000000000000000000 ) ) ;
#58 = DIRECTION ( 'NONE',  ( -3.153425691349006731E-31, -1.000000000000000000, -9.031770143711729009E-17 ) ) ;
#59 = PERSON_AND_ORGANIZATION ( #143, #63 ) ;
#60 = CARTESIAN_POINT ( 'NONE',  ( 0.0000000000000000000, 0.0000000000000000000, 0.0000000000000000000 ) ) ;
#61 = VERTEX_POINT ( 'NONE', #175 ) ;
#62 = DIRECTION ( 'NONE',  ( 1.867285627794888920E-30, -1.000000000000000000, 5.348118596600018052E-16 ) ) ;
#63 = ORGANIZATION ( 'UNSPECIFIED', 'UNSPECIFIED', '' ) ;
#64 = EDGE_CURVE ( 'NONE', #61, #61, #233, .T. ) ;
#65 = CC_DESIGN_PERSON_AND_ORGANIZATION_ASSIGNMENT ( #47, #33, ( #21 ) ) ;
#66 = CIRCLE ( 'NONE', #118, 1.599999999999994982 ) ;
#67 = COORDINATED_UNIVERSAL_TIME_OFFSET ( 1, 0, .AHEAD. ) ;
#68 = EDGE_CURVE ( 'NONE', #44, #44, #164, .T. ) ;
#69 = APPROVAL_ROLE ( '' ) ;
#70 = DATE_AND_TIME ( #195, #163 ) ;
#71 = DIRECTION ( 'NONE',  ( -3.491481338843133355E-15, -5.348118596600018052E-16, -1.000000000000000000 ) ) ;
#72 = ORIENTED_EDGE ( 'NONE', *, *, #54, .F. ) ;
#73 = DESIGN_CONTEXT ( 'detailed design', #219, 'design' ) ;
#74 = EDGE_LOOP ( 'NONE', ( #30 ) ) ;
#75 = CARTESIAN_POINT ( 'NONE',  ( 4.386923598777054066E-14, 2.823999999999998067, 12.56464856326746471 ) ) ;
#76 = EDGE_LOOP ( 'NONE', ( #183 ) ) ;
#77 = MECHANICAL_CONTEXT ( 'NONE', #181, 'mechanical' ) ;
#78 = DIRECTION ( 'NONE',  ( -3.491481338843133355E-15, 9.031770143711729009E-17, -1.000000000000000000 ) ) ;
#79 = FACE_OUTER_BOUND ( 'NONE', #216, .T. ) ;
#80 =( GEOMETRIC_REPRESENTATION_CONTEXT ( 3 ) GLOBAL_UNCERTAINTY_ASSIGNED_CONTEXT ( ( #50 ) ) GLOBAL_UNIT_ASSIGNED_CONTEXT ( ( #12, #138, #241 ) ) REPRESENTATION_CONTEXT ( 'NONE', 'WORKASPACE' ) );
#81 = CALENDAR_DATE ( 2021, 26, 11 ) ;
#82 = CYLINDRICAL_SURFACE ( 'NONE', #4, 1.999999999999993561 ) ;
#83 = PERSON_AND_ORGANIZATION ( #143, #63 ) ;
#84 = DIRECTION ( 'NONE',  ( 0.0000000000000000000, 1.000000000000000000, 0.0000000000000000000 ) ) ;
#85 = ADVANCED_BREP_SHAPE_REPRESENTATION ( '321468', ( #28, #31, #225 ), #80 ) ;
#86 = FACE_OUTER_BOUND ( 'NONE', #49, .T. ) ;
#87 = APPROVAL ( #231, 'UNSPECIFIED' ) ;
#88 = CC_DESIGN_SECURITY_CLASSIFICATION ( #48, ( #21 ) ) ;
#89 = FACE_OUTER_BOUND ( 'NONE', #212, .T. ) ;
#90 = DATE_AND_TIME ( #184, #142 ) ;
#91 = EDGE_LOOP ( 'NONE', ( #134 ) ) ;
#92 = PRODUCT_DEFINITION_SHAPE ( 'NONE', 'NONE',  #160 ) ;
#93 = LOCAL_TIME ( 11, 4, 8.000000000000000000, #120 ) ;
#94 = APPROVAL_STATUS ( 'not_yet_approved' ) ;
#95 = FACE_OUTER_BOUND ( 'NONE', #74, .T. ) ;
#96 = EDGE_CURVE ( 'NONE', #114, #114, #124, .T. ) ;
#97 = DIRECTION ( 'NONE',  ( -3.491481338843133355E-15, -5.348118596600018052E-16, -1.000000000000000000 ) ) ;
#98 = DIRECTION ( 'NONE',  ( 1.000000000000000000, 0.0000000000000000000, 0.0000000000000000000 ) ) ;
#99 = CARTESIAN_POINT ( 'NONE',  ( 4.841983468948244007E-30, 7.416766501548073026E-31, 1.386799183223641556E-15 ) ) ;
#100 = DATE_AND_TIME ( #23, #93 ) ;
#101 = CARTESIAN_POINT ( 'NONE',  ( 4.386923598777054066E-14, -1.134810177599495636E-15, 12.56464856326746471 ) ) ;
#102 = AXIS2_PLACEMENT_3D ( 'NONE', #220, #113, #186 ) ;
#103 = ADVANCED_FACE ( 'NONE', ( #43, #79 ), #210, .T. ) ;
#104 = DIRECTION ( 'NONE',  ( -1.841363615384398296E-30, 1.000000000000000000, -5.374939948582533841E-16 ) ) ;
#105 = ADVANCED_FACE ( 'NONE', ( #95 ), #139, .T. ) ;
#106 = AXIS2_PLACEMENT_3D ( 'NONE', #156, #57, #16 ) ;
#107 = AXIS2_PLACEMENT_3D ( 'NONE', #152, #71, #148 ) ;
#108 = SECURITY_CLASSIFICATION_LEVEL ( 'unclassified' ) ;
#109 = EDGE_LOOP ( 'NONE', ( #170 ) ) ;
#110 = ORIENTED_EDGE ( 'NONE', *, *, #96, .T. ) ;
#111 = APPROVAL ( #94, 'UNSPECIFIED' ) ;
#112 = PERSON_AND_ORGANIZATION_ROLE ( 'design_owner' ) ;
#113 = DIRECTION ( 'NONE',  ( -3.491481338843133355E-15, -5.348118596600018052E-16, -1.000000000000000000 ) ) ;
#114 = VERTEX_POINT ( 'NONE', #17 ) ;
#115 = FACE_OUTER_BOUND ( 'NONE', #52, .T. ) ;
#116 = VERTEX_POINT ( 'NONE', #39 ) ;
#117 = DIRECTION ( 'NONE',  ( 0.0000000000000000000, 1.000000000000000000, 0.0000000000000000000 ) ) ;
#118 = AXIS2_PLACEMENT_3D ( 'NONE', #2, #158, #178 ) ;
#119 = DATE_AND_TIME ( #81, #185 ) ;
#120 = COORDINATED_UNIVERSAL_TIME_OFFSET ( 1, 0, .AHEAD. ) ;
#121 = DIRECTION ( 'NONE',  ( -3.491481338843133355E-15, -5.348118596600018052E-16, -1.000000000000000000 ) ) ;
#122 = ADVANCED_FACE ( 'NONE', ( #115, #18 ), #25, .T. ) ;
#123 = CARTESIAN_POINT ( 'NONE',  ( 4.885231259955590439E-14, -1.263712492114123682E-15, 13.99185842870425134 ) ) ;
#124 = CIRCLE ( 'NONE', #29, 2.593059892324147686 ) ;
#125 = CC_DESIGN_PERSON_AND_ORGANIZATION_ASSIGNMENT ( #127, #27, ( #21 ) ) ;
#126 = AXIS2_PLACEMENT_3D ( 'NONE', #60, #97, #45 ) ;
#127 = PERSON_AND_ORGANIZATION ( #143, #63 ) ;
#128 = PERSON_AND_ORGANIZATION ( #143, #63 ) ;
#129 = CIRCLE ( 'NONE', #153, 1.999999999999995337 ) ;
#130 = APPROVAL_PERSON_ORGANIZATION ( #15, #111, #239 ) ;
#131 = EDGE_CURVE ( 'NONE', #155, #155, #66, .T. ) ;
#132 = ORIENTED_EDGE ( 'NONE', *, *, #68, .T. ) ;
#133 = CC_DESIGN_PERSON_AND_ORGANIZATION_ASSIGNMENT ( #41, #112, ( #137 ) ) ;
#134 = ORIENTED_EDGE ( 'NONE', *, *, #54, .T. ) ;
#135 = AXIS2_PLACEMENT_3D ( 'NONE', #101, #3, #223 ) ;
#136 = PLANE ( 'NONE',  #36 ) ;
#137 = PRODUCT ( '321468', '321468', '', ( #77 ) ) ;
#138 =( NAMED_UNIT ( * ) PLANE_ANGLE_UNIT ( ) SI_UNIT ( $, .RADIAN. ) );
#139 = PLANE ( 'NONE',  #168 ) ;
#140 = FACE_OUTER_BOUND ( 'NONE', #149, .T. ) ;
#141 = DIRECTION ( 'NONE',  ( 3.153425691349006731E-31, 1.000000000000000000, 9.031770143711729009E-17 ) ) ;
#142 = LOCAL_TIME ( 11, 4, 8.000000000000000000, #229 ) ;
#143 = PERSON ( 'UNSPECIFIED', 'UNSPECIFIED', 'UNSPECIFIED', ('UNSPECIFIED'), ('UNSPECIFIED'), ('UNSPECIFIED') ) ;
#144 = DIRECTION ( 'NONE',  ( 1.867285627794889270E-30, -1.000000000000000000, 5.348118596600018052E-16 ) ) ;
#145 = APPROVAL_STATUS ( 'not_yet_approved' ) ;
#146 = ADVANCED_FACE ( 'NONE', ( #221, #140 ), #151, .T. ) ;
#147 = PERSON_AND_ORGANIZATION ( #143, #63 ) ;
#148 = DIRECTION ( 'NONE',  ( -1.867285627794888920E-30, 1.000000000000000000, -5.348118596600018052E-16 ) ) ;
#149 = EDGE_LOOP ( 'NONE', ( #235 ) ) ;
#150 = EDGE_CURVE ( 'NONE', #116, #116, #35, .T. ) ;
#151 = CONICAL_SURFACE ( 'NONE', #204, 1.999999999999995337, 0.7853981633974516097 ) ;
#152 = CARTESIAN_POINT ( 'NONE',  ( -2.420991734474122003E-30, 2.593059892324147686, -6.933995916118207779E-16 ) ) ;
#153 = AXIS2_PLACEMENT_3D ( 'NONE', #194, #166, #180 ) ;
#154 = APPROVAL_DATE_TIME ( #70, #37 ) ;
#155 = VERTEX_POINT ( 'NONE', #157 ) ;
#156 = CARTESIAN_POINT ( 'NONE',  ( 4.386923598777054066E-14, -1.134810177599495636E-15, 12.56464856326746471 ) ) ;
#157 = CARTESIAN_POINT ( 'NONE',  ( 2.793185071074506684E-13, 1.599999999999987876, 80.00000000000000000 ) ) ;
#158 = DIRECTION ( 'NONE',  ( -3.491481338843133355E-15, 9.031770143711729009E-17, -1.000000000000000000 ) ) ;
#159 = APPLICATION_PROTOCOL_DEFINITION ( 'international standard', 'config_control_design', 1994, #181 ) ;
#160 = PRODUCT_DEFINITION ( 'UNKNOWN', '', #21, #73 ) ;
#161 = CARTESIAN_POINT ( 'NONE',  ( 2.793185071074506684E-13, -7.225416114969383207E-15, 80.00000000000000000 ) ) ;
#162 = CARTESIAN_POINT ( 'NONE',  ( 2.779219145719134403E-13, 1.999999999999988010, 79.60000000000000853 ) ) ;
#163 = LOCAL_TIME ( 11, 4, 8.000000000000000000, #67 ) ;
#164 = CIRCLE ( 'NONE', #135, 2.823999999999999400 ) ;
#165 = APPROVAL_PERSON_ORGANIZATION ( #128, #87, #32 ) ;
#166 = DIRECTION ( 'NONE',  ( -3.491481338843133355E-15, 9.031770143711729009E-17, -1.000000000000000000 ) ) ;
#167 = CIRCLE ( 'NONE', #217, 1.999999999999991784 ) ;
#168 = AXIS2_PLACEMENT_3D ( 'NONE', #161, #179, #58 ) ;
#169 = ORIENTED_EDGE ( 'NONE', *, *, #68, .F. ) ;
#170 = ORIENTED_EDGE ( 'NONE', *, *, #96, .F. ) ;
#171 = APPROVAL_DATE_TIME ( #90, #87 ) ;
#172 = EDGE_LOOP ( 'NONE', ( #72 ) ) ;
#173 = CC_DESIGN_APPROVAL ( #111, ( #160 ) ) ;
#174 = DIRECTION ( 'NONE',  ( -3.491481338843133355E-15, 9.031770143711729009E-17, -1.000000000000000000 ) ) ;
#175 = CARTESIAN_POINT ( 'NONE',  ( 4.386923598777054066E-14, 2.823999999999998067, 12.56464856326746471 ) ) ;
#176 = ADVANCED_FACE ( 'NONE', ( #20, #218 ), #82, .T. ) ;
#177 = CALENDAR_DATE ( 2021, 26, 11 ) ;
#178 = DIRECTION ( 'NONE',  ( 0.0000000000000000000, 1.000000000000000000, 0.0000000000000000000 ) ) ;
#179 = DIRECTION ( 'NONE',  ( 3.491481338843133355E-15, -9.031770143711729009E-17, 1.000000000000000000 ) ) ;
#180 = DIRECTION ( 'NONE',  ( 0.0000000000000000000, 1.000000000000000000, 0.0000000000000000000 ) ) ;
#181 = APPLICATION_CONTEXT ( 'configuration controlled 3d designs of mechanical parts and assemblies' ) ;
#182 = CC_DESIGN_APPROVAL ( #87, ( #48 ) ) ;
#183 = ORIENTED_EDGE ( 'NONE', *, *, #226, .T. ) ;
#184 = CALENDAR_DATE ( 2021, 26, 11 ) ;
#185 = LOCAL_TIME ( 11, 4, 8.000000000000000000, #242 ) ;
#186 = DIRECTION ( 'NONE',  ( -2.182356877492625224E-30, 1.000000000000000000, -6.142788512665766343E-16 ) ) ;
#187 = DIRECTION ( 'NONE',  ( -3.491481338843133355E-15, -5.348118596600018052E-16, -1.000000000000000000 ) ) ;
#188 = ADVANCED_FACE ( 'NONE', ( #205 ), #192, .T. ) ;
#189 = APPLICATION_PROTOCOL_DEFINITION ( 'international standard', 'config_control_design', 1994, #219 ) ;
#190 = CARTESIAN_POINT ( 'NONE',  ( 1.396592535537258470E-15, 2.139247438640015109E-16, 0.4000000000000014655 ) ) ;
#191 = DIRECTION ( 'NONE',  ( 3.491481338843133355E-15, 5.348118596600018052E-16, 1.000000000000000000 ) ) ;
#192 = PLANE ( 'NONE',  #200 ) ;
#193 = AXIS2_PLACEMENT_3D ( 'NONE', #99, #191, #144 ) ;
#194 = CARTESIAN_POINT ( 'NONE',  ( 2.779219145719134403E-13, -7.189289034394536528E-15, 79.60000000000000853 ) ) ;
#195 = CALENDAR_DATE ( 2021, 26, 11 ) ;
#196 = ADVANCED_FACE ( 'NONE', ( #56 ), #136, .T. ) ;
#197 = EDGE_LOOP ( 'NONE', ( #10 ) ) ;
#198 = PERSON_AND_ORGANIZATION_ROLE ( 'classification_officer' ) ;
#199 = VERTEX_POINT ( 'NONE', #162 ) ;
#200 = AXIS2_PLACEMENT_3D ( 'NONE', #24, #224, #62 ) ;
#201 = CARTESIAN_POINT ( 'NONE',  ( 0.0000000000000000000, 0.0000000000000000000, 0.0000000000000000000 ) ) ;
#202 = CARTESIAN_POINT ( 'NONE',  ( 4.841983468948244007E-30, 7.416766501548073026E-31, 1.386799183223641556E-15 ) ) ;
#203 = PERSON_AND_ORGANIZATION_ROLE ( 'creator' ) ;
#204 = AXIS2_PLACEMENT_3D ( 'NONE', #42, #174, #117 ) ;
#205 = FACE_OUTER_BOUND ( 'NONE', #232, .T. ) ;
#206 = DIRECTION ( 'NONE',  ( -1.867285627794888920E-30, 1.000000000000000000, -5.348118596600018052E-16 ) ) ;
#207 = DIRECTION ( 'NONE',  ( -3.491481338843133355E-15, 9.031770143711729009E-17, -1.000000000000000000 ) ) ;
#208 = ORIENTED_EDGE ( 'NONE', *, *, #64, .F. ) ;
#209 = EDGE_LOOP ( 'NONE', ( #6 ) ) ;
#210 = CONICAL_SURFACE ( 'NONE', #106, 2.823999999999999400, 0.5235987755982930425 ) ;
#211 = VERTEX_POINT ( 'NONE', #51 ) ;
#212 = EDGE_LOOP ( 'NONE', ( #7 ) ) ;
#213 = CC_DESIGN_DATE_AND_TIME_ASSIGNMENT ( #100, #1, ( #160 ) ) ;
#214 = CC_DESIGN_APPROVAL ( #37, ( #21 ) ) ;
#215 = DATE_TIME_ROLE ( 'classification_date' ) ;
#216 = EDGE_LOOP ( 'NONE', ( #169 ) ) ;
#217 = AXIS2_PLACEMENT_3D ( 'NONE', #123, #40, #84 ) ;
#218 = FACE_OUTER_BOUND ( 'NONE', #172, .T. ) ;
#219 = APPLICATION_CONTEXT ( 'configuration controlled 3d designs of mechanical parts and assemblies' ) ;
#220 = CARTESIAN_POINT ( 'NONE',  ( 4.386923598777054697E-14, 6.719723064095443671E-15, 12.56464856326746649 ) ) ;
#221 = FACE_BOUND ( 'NONE', #209, .T. ) ;
#222 = APPROVAL_DATE_TIME ( #243, #111 ) ;
#223 = DIRECTION ( 'NONE',  ( 0.0000000000000000000, 1.000000000000000000, 0.0000000000000000000 ) ) ;
#224 = DIRECTION ( 'NONE',  ( 3.491481338843133355E-15, 5.348118596600018052E-16, 1.000000000000000000 ) ) ;
#225 = AXIS2_PLACEMENT_3D ( 'NONE', #201, #55, #98 ) ;
#226 = EDGE_CURVE ( 'NONE', #199, #199, #129, .T. ) ;
#227 = DIRECTION ( 'NONE',  ( 3.153425691349006731E-31, 1.000000000000000000, 9.031770143711729009E-17 ) ) ;
#228 = CC_DESIGN_DATE_AND_TIME_ASSIGNMENT ( #119, #215, ( #48 ) ) ;
#229 = COORDINATED_UNIVERSAL_TIME_OFFSET ( 1, 0, .AHEAD. ) ;
#230 = PRODUCT_RELATED_PRODUCT_CATEGORY ( 'detail', '', ( #137 ) ) ;
#231 = APPROVAL_STATUS ( 'not_yet_approved' ) ;
#232 = EDGE_LOOP ( 'NONE', ( #208 ) ) ;
#233 = CIRCLE ( 'NONE', #102, 2.823999999999991406 ) ;
#234 = ADVANCED_FACE ( 'NONE', ( #86 ), #9, .T. ) ;
#235 = ORIENTED_EDGE ( 'NONE', *, *, #226, .F. ) ;
#236 = AXIS2_PLACEMENT_3D ( 'NONE', #190, #121, #104 ) ;
#237 = EDGE_LOOP ( 'NONE', ( #132 ) ) ;
#238 = CLOSED_SHELL ( 'NONE', ( #105, #146, #176, #103, #196 ) ) ;
#239 = APPROVAL_ROLE ( '' ) ;
#240 = CARTESIAN_POINT ( 'NONE',  ( 0.0000000000000000000, 0.0000000000000000000, 0.0000000000000000000 ) ) ;
#241 =( NAMED_UNIT ( * ) SI_UNIT ( $, .STERADIAN. ) SOLID_ANGLE_UNIT ( ) );
#242 = COORDINATED_UNIVERSAL_TIME_OFFSET ( 1, 0, .AHEAD. ) ;
#243 = DATE_AND_TIME ( #177, #5 ) ;
ENDSEC;
END-ISO-10303-21;
