ISO-10303-21;
HEADER;
FILE_DESCRIPTION (( 'STEP AP203' ),
    '1' );
FILE_NAME ('321467.step',
    '2021-11-26T10:04:07',
    ( '' ),
    ( '' ),
    'SwSTEP 2.0',
    'SolidWorks 2019',
    '' );
FILE_SCHEMA (( 'CONFIG_CONTROL_DESIGN' ));
ENDSEC;

DATA;
#1 = CALENDAR_DATE ( 2021, 26, 11 ) ;
#2 = PERSON_AND_ORGANIZATION ( #26, #9 ) ;
#3 = EDGE_LOOP ( 'NONE', ( #66 ) ) ;
#4 = CALENDAR_DATE ( 2021, 26, 11 ) ;
#5 = AXIS2_PLACEMENT_3D ( 'NONE', #107, #65, #218 ) ;
#6 = PERSON_AND_ORGANIZATION ( #26, #9 ) ;
#7 = AXIS2_PLACEMENT_3D ( 'NONE', #8, #120, #13 ) ;
#8 = CARTESIAN_POINT ( 'NONE',  ( 4.389947310313330939E-14, -1.135592351838055326E-15, 12.57330881730530869 ) ) ;
#9 = ORGANIZATION ( 'UNSPECIFIED', 'UNSPECIFIED', '' ) ;
#10 = DIRECTION ( 'NONE',  ( 0.0000000000000000000, 1.000000000000000000, 0.0000000000000000000 ) ) ;
#11 = DIRECTION ( 'NONE',  ( -1.865410455113665062E-30, 1.000000000000000000, -5.342747888584590341E-16 ) ) ;
#12 = DIRECTION ( 'NONE',  ( 1.865410455113665062E-30, -1.000000000000000000, 5.342747888584590341E-16 ) ) ;
#13 = DIRECTION ( 'NONE',  ( 0.0000000000000000000, 1.000000000000000000, 0.0000000000000000000 ) ) ;
#14 = CARTESIAN_POINT ( 'NONE',  ( 1.396592535537258470E-15, 2.137099155433843927E-16, 0.4000000000000014655 ) ) ;
#15 = DIRECTION ( 'NONE',  ( 0.0000000000000000000, 1.000000000000000000, 0.0000000000000000000 ) ) ;
#16 = APPROVAL_DATE_TIME ( #189, #83 ) ;
#17 = AXIS2_PLACEMENT_3D ( 'NONE', #43, #199, #23 ) ;
#18 = EDGE_CURVE ( 'NONE', #110, #110, #40, .T. ) ;
#19 = CALENDAR_DATE ( 2021, 26, 11 ) ;
#20 = APPROVAL_STATUS ( 'not_yet_approved' ) ;
#21 = ADVANCED_FACE ( 'NONE', ( #163, #231 ), #219, .T. ) ;
#22 = DIRECTION ( 'NONE',  ( -3.491481338843133355E-15, 9.031770143711729009E-17, -1.000000000000000000 ) ) ;
#23 = DIRECTION ( 'NONE',  ( 1.865410455113665062E-30, -1.000000000000000000, 5.342747888584590341E-16 ) ) ;
#24 = LOCAL_TIME ( 11, 4, 7.000000000000000000, #225 ) ;
#25 = CARTESIAN_POINT ( 'NONE',  ( 0.0000000000000000000, 2.588059892324147793, 0.0000000000000000000 ) ) ;
#26 = PERSON ( 'UNSPECIFIED', 'UNSPECIFIED', 'UNSPECIFIED', ('UNSPECIFIED'), ('UNSPECIFIED'), ('UNSPECIFIED') ) ;
#27 = CARTESIAN_POINT ( 'NONE',  ( 4.389947310313330939E-14, -1.135592351838055326E-15, 12.57330881730530869 ) ) ;
#28 = FACE_BOUND ( 'NONE', #188, .T. ) ;
#29 = APPROVAL ( #210, 'UNSPECIFIED' ) ;
#30 = CARTESIAN_POINT ( 'NONE',  ( 2.779219145719134403E-13, 1.999999999999988010, 79.60000000000000853 ) ) ;
#31 = ORIENTED_EDGE ( 'NONE', *, *, #170, .T. ) ;
#32 = PRODUCT ( '321467', '321467', '', ( #91 ) ) ;
#33 = AXIS2_PLACEMENT_3D ( 'NONE', #61, #42, #192 ) ;
#34 = DIRECTION ( 'NONE',  ( -2.186227677204389180E-30, 1.000000000000000000, -6.153683845252970076E-16 ) ) ;
#35 = DIRECTION ( 'NONE',  ( 0.0000000000000000000, 1.000000000000000000, 0.0000000000000000000 ) ) ;
#36 = COORDINATED_UNIVERSAL_TIME_OFFSET ( 1, 0, .AHEAD. ) ;
#37 = UNCERTAINTY_MEASURE_WITH_UNIT (LENGTH_MEASURE( 1.000000000000000082E-05 ), #53, 'distance_accuracy_value', 'NONE');
#38 = ADVANCED_FACE ( 'NONE', ( #117, #102 ), #128, .T. ) ;
#39 = PERSON_AND_ORGANIZATION_ROLE ( 'design_supplier' ) ;
#40 = CIRCLE ( 'NONE', #67, 2.818999999999997730 ) ;
#41 = ORIENTED_EDGE ( 'NONE', *, *, #190, .T. ) ;
#42 = DIRECTION ( 'NONE',  ( 0.0000000000000000000, 0.0000000000000000000, 1.000000000000000000 ) ) ;
#43 = CARTESIAN_POINT ( 'NONE',  ( 4.827793981601811646E-30, 7.387605316622126672E-31, 1.382735152524530366E-15 ) ) ;
#44 = ADVANCED_FACE ( 'NONE', ( #103 ), #201, .T. ) ;
#45 = CALENDAR_DATE ( 2021, 26, 11 ) ;
#46 = CC_DESIGN_APPROVAL ( #83, ( #164 ) ) ;
#47 = CC_DESIGN_PERSON_AND_ORGANIZATION_ASSIGNMENT ( #232, #71, ( #164 ) ) ;
#48 = PLANE ( 'NONE',  #139 ) ;
#49 = DIRECTION ( 'NONE',  ( -3.491481338843133355E-15, -5.342747888584590341E-16, -1.000000000000000000 ) ) ;
#50 = CYLINDRICAL_SURFACE ( 'NONE', #211, 2.818999999999994621 ) ;
#51 = EDGE_LOOP ( 'NONE', ( #172 ) ) ;
#52 = DIRECTION ( 'NONE',  ( -1.844629602641199440E-30, 1.000000000000000000, -5.384473364596336614E-16 ) ) ;
#53 =( LENGTH_UNIT ( ) NAMED_UNIT ( * ) SI_UNIT ( .MILLI., .METRE. ) );
#54 = CARTESIAN_POINT ( 'NONE',  ( 1.396592535537253342E-15, 2.818999999999997730, 0.3999999999999999667 ) ) ;
#55 = CLOSED_SHELL ( 'NONE', ( #200, #131, #21, #44 ) ) ;
#56 = DIRECTION ( 'NONE',  ( -3.491481338843133355E-15, 9.031770143711729009E-17, -1.000000000000000000 ) ) ;
#57 = CC_DESIGN_DATE_AND_TIME_ASSIGNMENT ( #171, #60, ( #164 ) ) ;
#58 = APPLICATION_PROTOCOL_DEFINITION ( 'international standard', 'config_control_design', 1994, #195 ) ;
#59 = DATE_TIME_ROLE ( 'classification_date' ) ;
#60 = DATE_TIME_ROLE ( 'creation_date' ) ;
#61 = CARTESIAN_POINT ( 'NONE',  ( 0.0000000000000000000, 0.0000000000000000000, 0.0000000000000000000 ) ) ;
#62 = AXIS2_PLACEMENT_3D ( 'NONE', #125, #138, #78 ) ;
#63 = ADVANCED_FACE ( 'NONE', ( #239 ), #48, .T. ) ;
#64 = DIRECTION ( 'NONE',  ( 0.0000000000000000000, 1.000000000000000000, 0.0000000000000000000 ) ) ;
#65 = DIRECTION ( 'NONE',  ( -3.491481338843133355E-15, 9.031770143711729009E-17, -1.000000000000000000 ) ) ;
#66 = ORIENTED_EDGE ( 'NONE', *, *, #222, .T. ) ;
#67 = AXIS2_PLACEMENT_3D ( 'NONE', #14, #143, #52 ) ;
#68 = FACE_OUTER_BOUND ( 'NONE', #3, .T. ) ;
#69 = DIRECTION ( 'NONE',  ( -3.491481338843133355E-15, 9.031770143711729009E-17, -1.000000000000000000 ) ) ;
#70 = EDGE_LOOP ( 'NONE', ( #87 ) ) ;
#71 = PERSON_AND_ORGANIZATION_ROLE ( 'creator' ) ;
#72 = PERSON_AND_ORGANIZATION_ROLE ( 'classification_officer' ) ;
#73 = APPROVAL_DATE_TIME ( #173, #29 ) ;
#74 = APPROVAL ( #92, 'UNSPECIFIED' ) ;
#75 = AXIS2_PLACEMENT_3D ( 'NONE', #242, #203, #12 ) ;
#76 = PERSON_AND_ORGANIZATION_ROLE ( 'design_owner' ) ;
#77 = ORIENTED_EDGE ( 'NONE', *, *, #97, .F. ) ;
#78 = DIRECTION ( 'NONE',  ( -3.153425691349006731E-31, -1.000000000000000000, -9.031770143711729009E-17 ) ) ;
#79 = AXIS2_PLACEMENT_3D ( 'NONE', #206, #167, #204 ) ;
#80 = DIRECTION ( 'NONE',  ( -1.865410455113665062E-30, 1.000000000000000000, -5.342747888584590341E-16 ) ) ;
#81 = PRODUCT_DEFINITION_SHAPE ( 'NONE', 'NONE',  #164 ) ;
#82 = EDGE_LOOP ( 'NONE', ( #181 ) ) ;
#83 = APPROVAL ( #20, 'UNSPECIFIED' ) ;
#84 = DIRECTION ( 'NONE',  ( -1.865410455113665062E-30, 1.000000000000000000, -5.342747888584590341E-16 ) ) ;
#85 = APPROVAL_PERSON_ORGANIZATION ( #214, #83, #208 ) ;
#86 = CARTESIAN_POINT ( 'NONE',  ( 4.389947310313330939E-14, 2.818999999999998174, 12.57330881730530869 ) ) ;
#87 = ORIENTED_EDGE ( 'NONE', *, *, #190, .F. ) ;
#88 = VERTEX_POINT ( 'NONE', #220 ) ;
#89 = LOCAL_TIME ( 11, 4, 7.000000000000000000, #115 ) ;
#90 = CC_DESIGN_SECURITY_CLASSIFICATION ( #96, ( #166 ) ) ;
#91 = MECHANICAL_CONTEXT ( 'NONE', #161, 'mechanical' ) ;
#92 = APPROVAL_STATUS ( 'not_yet_approved' ) ;
#93 = PERSON_AND_ORGANIZATION ( #26, #9 ) ;
#94 = EDGE_LOOP ( 'NONE', ( #174 ) ) ;
#95 = DATE_AND_TIME ( #45, #24 ) ;
#96 = SECURITY_CLASSIFICATION ( '', '', #112 ) ;
#97 = EDGE_CURVE ( 'NONE', #129, #129, #180, .T. ) ;
#98 = EDGE_LOOP ( 'NONE', ( #146 ) ) ;
#99 = CIRCLE ( 'NONE', #212, 2.818999999999999506 ) ;
#100 = CLOSED_SHELL ( 'NONE', ( #122, #155, #140, #38, #63 ) ) ;
#101 = FACE_OUTER_BOUND ( 'NONE', #226, .T. ) ;
#102 = FACE_OUTER_BOUND ( 'NONE', #98, .T. ) ;
#103 = FACE_OUTER_BOUND ( 'NONE', #94, .T. ) ;
#104 = CARTESIAN_POINT ( 'NONE',  ( 2.779219145719134403E-13, -7.189289034394536528E-15, 79.60000000000000853 ) ) ;
#105 = CC_DESIGN_PERSON_AND_ORGANIZATION_ASSIGNMENT ( #93, #72, ( #96 ) ) ;
#106 = CARTESIAN_POINT ( 'NONE',  ( 4.827793981601811646E-30, 7.387605316622126672E-31, 1.382735152524530366E-15 ) ) ;
#107 = CARTESIAN_POINT ( 'NONE',  ( 4.885231259955590439E-14, -1.263712492114123682E-15, 13.99185842870425134 ) ) ;
#108 = VERTEX_POINT ( 'NONE', #30 ) ;
#109 =( GEOMETRIC_REPRESENTATION_CONTEXT ( 3 ) GLOBAL_UNCERTAINTY_ASSIGNED_CONTEXT ( ( #37 ) ) GLOBAL_UNIT_ASSIGNED_CONTEXT ( ( #53, #162, #215 ) ) REPRESENTATION_CONTEXT ( 'NONE', 'WORKASPACE' ) );
#110 = VERTEX_POINT ( 'NONE', #54 ) ;
#111 = PERSON_AND_ORGANIZATION ( #26, #9 ) ;
#112 = SECURITY_CLASSIFICATION_LEVEL ( 'unclassified' ) ;
#113 = CIRCLE ( 'NONE', #116, 1.999999999999995337 ) ;
#114 = COORDINATED_UNIVERSAL_TIME_OFFSET ( 1, 0, .AHEAD. ) ;
#115 = COORDINATED_UNIVERSAL_TIME_OFFSET ( 1, 0, .AHEAD. ) ;
#116 = AXIS2_PLACEMENT_3D ( 'NONE', #223, #56, #15 ) ;
#117 = FACE_BOUND ( 'NONE', #191, .T. ) ;
#118 = EDGE_CURVE ( 'NONE', #185, #185, #99, .T. ) ;
#119 = CONICAL_SURFACE ( 'NONE', #198, 1.999999999999995337, 0.7853981633974516097 ) ;
#120 = DIRECTION ( 'NONE',  ( -3.491481338843133355E-15, 9.031770143711729009E-17, -1.000000000000000000 ) ) ;
#121 = DIRECTION ( 'NONE',  ( -3.491481338843133355E-15, -5.342747888584590341E-16, -1.000000000000000000 ) ) ;
#122 = ADVANCED_FACE ( 'NONE', ( #233 ), #213, .T. ) ;
#123 = FACE_OUTER_BOUND ( 'NONE', #70, .T. ) ;
#124 = DESIGN_CONTEXT ( 'detailed design', #195, 'design' ) ;
#125 = CARTESIAN_POINT ( 'NONE',  ( 2.793185071074506684E-13, -7.225416114969383207E-15, 80.00000000000000000 ) ) ;
#126 = EDGE_LOOP ( 'NONE', ( #235 ) ) ;
#127 = VERTEX_POINT ( 'NONE', #207 ) ;
#128 = CONICAL_SURFACE ( 'NONE', #7, 2.818999999999999506, 0.5235987755982928205 ) ;
#129 = VERTEX_POINT ( 'NONE', #25 ) ;
#130 = PERSON_AND_ORGANIZATION ( #26, #9 ) ;
#131 = ADVANCED_FACE ( 'NONE', ( #101, #159 ), #50, .T. ) ;
#132 = AXIS2_PLACEMENT_3D ( 'NONE', #238, #121, #34 ) ;
#133 = MANIFOLD_SOLID_BREP ( 'Corps-Déplacer/Copier1[1]', #100 ) ;
#134 = MANIFOLD_SOLID_BREP ( 'Corps-Déplacer/Copier1[2]', #55 ) ;
#135 = CC_DESIGN_DATE_AND_TIME_ASSIGNMENT ( #228, #59, ( #96 ) ) ;
#136 = LOCAL_TIME ( 11, 4, 7.000000000000000000, #177 ) ;
#137 = ORIENTED_EDGE ( 'NONE', *, *, #222, .F. ) ;
#138 = DIRECTION ( 'NONE',  ( 3.491481338843133355E-15, -9.031770143711729009E-17, 1.000000000000000000 ) ) ;
#139 = AXIS2_PLACEMENT_3D ( 'NONE', #158, #22, #144 ) ;
#140 = ADVANCED_FACE ( 'NONE', ( #68, #123 ), #221, .T. ) ;
#141 = FACE_OUTER_BOUND ( 'NONE', #82, .T. ) ;
#142 = DIRECTION ( 'NONE',  ( -3.491481338843133355E-15, 9.031770143711729009E-17, -1.000000000000000000 ) ) ;
#143 = DIRECTION ( 'NONE',  ( -3.491481338843133355E-15, -5.342747888584590341E-16, -1.000000000000000000 ) ) ;
#144 = DIRECTION ( 'NONE',  ( 3.153425691349006731E-31, 1.000000000000000000, 9.031770143711729009E-17 ) ) ;
#145 = CIRCLE ( 'NONE', #5, 1.999999999999991784 ) ;
#146 = ORIENTED_EDGE ( 'NONE', *, *, #118, .F. ) ;
#147 = DIRECTION ( 'NONE',  ( -3.491481338843133355E-15, -5.342747888584590341E-16, -1.000000000000000000 ) ) ;
#148 = DIRECTION ( 'NONE',  ( -3.491481338843133355E-15, 9.031770143711729009E-17, -1.000000000000000000 ) ) ;
#149 = LOCAL_TIME ( 11, 4, 7.000000000000000000, #36 ) ;
#150 = APPLICATION_PROTOCOL_DEFINITION ( 'international standard', 'config_control_design', 1994, #161 ) ;
#151 = ORIENTED_EDGE ( 'NONE', *, *, #179, .T. ) ;
#152 = PRODUCT_RELATED_PRODUCT_CATEGORY ( 'detail', '', ( #32 ) ) ;
#153 = APPROVAL_DATE_TIME ( #95, #74 ) ;
#154 = PERSON_AND_ORGANIZATION_ROLE ( 'creator' ) ;
#155 = ADVANCED_FACE ( 'NONE', ( #28, #186 ), #119, .T. ) ;
#156 = PERSON_AND_ORGANIZATION ( #26, #9 ) ;
#157 = AXIS2_PLACEMENT_3D ( 'NONE', #106, #49, #80 ) ;
#158 = CARTESIAN_POINT ( 'NONE',  ( 4.389947310313331570E-14, 2.818999999999998174, 12.57330881730531047 ) ) ;
#159 = FACE_OUTER_BOUND ( 'NONE', #176, .T. ) ;
#160 = CARTESIAN_POINT ( 'NONE',  ( -2.413896990800905823E-30, 2.588059892324147793, -6.913675762622651832E-16 ) ) ;
#161 = APPLICATION_CONTEXT ( 'configuration controlled 3d designs of mechanical parts and assemblies' ) ;
#162 =( NAMED_UNIT ( * ) PLANE_ANGLE_UNIT ( ) SI_UNIT ( $, .RADIAN. ) );
#163 = FACE_OUTER_BOUND ( 'NONE', #197, .T. ) ;
#164 = PRODUCT_DEFINITION ( 'UNKNOWN', '', #166, #124 ) ;
#165 = CARTESIAN_POINT ( 'NONE',  ( 2.793185071074506684E-13, -7.225416114969383207E-15, 80.00000000000000000 ) ) ;
#166 = PRODUCT_DEFINITION_FORMATION_WITH_SPECIFIED_SOURCE ( 'ANY', '', #32, .NOT_KNOWN. ) ;
#167 = DIRECTION ( 'NONE',  ( -3.491481338843133355E-15, 9.031770143711729009E-17, -1.000000000000000000 ) ) ;
#168 = APPROVAL_ROLE ( '' ) ;
#169 = LOCAL_TIME ( 11, 4, 7.000000000000000000, #114 ) ;
#170 = EDGE_CURVE ( 'NONE', #184, #184, #196, .T. ) ;
#171 = DATE_AND_TIME ( #1, #136 ) ;
#172 = ORIENTED_EDGE ( 'NONE', *, *, #179, .F. ) ;
#173 = DATE_AND_TIME ( #193, #89 ) ;
#174 = ORIENTED_EDGE ( 'NONE', *, *, #97, .T. ) ;
#175 = APPROVAL_ROLE ( '' ) ;
#176 = EDGE_LOOP ( 'NONE', ( #194 ) ) ;
#177 = COORDINATED_UNIVERSAL_TIME_OFFSET ( 1, 0, .AHEAD. ) ;
#178 = ORIENTED_EDGE ( 'NONE', *, *, #18, .T. ) ;
#179 = EDGE_CURVE ( 'NONE', #127, #127, #236, .T. ) ;
#180 = CIRCLE ( 'NONE', #157, 2.588059892324147793 ) ;
#181 = ORIENTED_EDGE ( 'NONE', *, *, #170, .F. ) ;
#182 = CC_DESIGN_PERSON_AND_ORGANIZATION_ASSIGNMENT ( #2, #39, ( #166 ) ) ;
#183 = PLANE ( 'NONE',  #75 ) ;
#184 = VERTEX_POINT ( 'NONE', #241 ) ;
#185 = VERTEX_POINT ( 'NONE', #86 ) ;
#186 = FACE_OUTER_BOUND ( 'NONE', #209, .T. ) ;
#187 = AXIS2_PLACEMENT_3D ( 'NONE', #160, #217, #11 ) ;
#188 = EDGE_LOOP ( 'NONE', ( #151 ) ) ;
#189 = DATE_AND_TIME ( #4, #149 ) ;
#190 = EDGE_CURVE ( 'NONE', #88, #88, #145, .T. ) ;
#191 = EDGE_LOOP ( 'NONE', ( #41 ) ) ;
#192 = DIRECTION ( 'NONE',  ( 1.000000000000000000, 0.0000000000000000000, 0.0000000000000000000 ) ) ;
#193 = CALENDAR_DATE ( 2021, 26, 11 ) ;
#194 = ORIENTED_EDGE ( 'NONE', *, *, #18, .F. ) ;
#195 = APPLICATION_CONTEXT ( 'configuration controlled 3d designs of mechanical parts and assemblies' ) ;
#196 = CIRCLE ( 'NONE', #132, 2.818999999999991513 ) ;
#197 = EDGE_LOOP ( 'NONE', ( #178 ) ) ;
#198 = AXIS2_PLACEMENT_3D ( 'NONE', #104, #69, #10 ) ;
#199 = DIRECTION ( 'NONE',  ( 3.491481338843133355E-15, 5.342747888584590341E-16, 1.000000000000000000 ) ) ;
#200 = ADVANCED_FACE ( 'NONE', ( #141 ), #183, .T. ) ;
#201 = PLANE ( 'NONE',  #187 ) ;
#202 = APPROVAL_PERSON_ORGANIZATION ( #130, #29, #175 ) ;
#203 = DIRECTION ( 'NONE',  ( 3.491481338843133355E-15, 5.342747888584590341E-16, 1.000000000000000000 ) ) ;
#204 = DIRECTION ( 'NONE',  ( 3.153425691349006731E-31, 1.000000000000000000, 9.031770143711729009E-17 ) ) ;
#205 = CC_DESIGN_PERSON_AND_ORGANIZATION_ASSIGNMENT ( #156, #154, ( #166 ) ) ;
#206 = CARTESIAN_POINT ( 'NONE',  ( 0.0000000000000000000, 0.0000000000000000000, 0.0000000000000000000 ) ) ;
#207 = CARTESIAN_POINT ( 'NONE',  ( 2.793185071074506684E-13, 1.599999999999987876, 80.00000000000000000 ) ) ;
#208 = APPROVAL_ROLE ( '' ) ;
#209 = EDGE_LOOP ( 'NONE', ( #137 ) ) ;
#210 = APPROVAL_STATUS ( 'not_yet_approved' ) ;
#211 = AXIS2_PLACEMENT_3D ( 'NONE', #234, #147, #84 ) ;
#212 = AXIS2_PLACEMENT_3D ( 'NONE', #27, #142, #64 ) ;
#213 = PLANE ( 'NONE',  #62 ) ;
#214 = PERSON_AND_ORGANIZATION ( #26, #9 ) ;
#215 =( NAMED_UNIT ( * ) SI_UNIT ( $, .STERADIAN. ) SOLID_ANGLE_UNIT ( ) );
#216 = CC_DESIGN_APPROVAL ( #74, ( #166 ) ) ;
#217 = DIRECTION ( 'NONE',  ( -3.491481338843133355E-15, -5.342747888584590341E-16, -1.000000000000000000 ) ) ;
#218 = DIRECTION ( 'NONE',  ( 0.0000000000000000000, 1.000000000000000000, 0.0000000000000000000 ) ) ;
#219 = CONICAL_SURFACE ( 'NONE', #17, 2.588059892324147793, 0.5235987755982978165 ) ;
#220 = CARTESIAN_POINT ( 'NONE',  ( 4.885231259955590439E-14, 1.999999999999990452, 13.99185842870425134 ) ) ;
#221 = CYLINDRICAL_SURFACE ( 'NONE', #79, 1.999999999999993561 ) ;
#222 = EDGE_CURVE ( 'NONE', #108, #108, #113, .T. ) ;
#223 = CARTESIAN_POINT ( 'NONE',  ( 2.779219145719134403E-13, -7.189289034394536528E-15, 79.60000000000000853 ) ) ;
#224 = AXIS2_PLACEMENT_3D ( 'NONE', #165, #148, #35 ) ;
#225 = COORDINATED_UNIVERSAL_TIME_OFFSET ( 1, 0, .AHEAD. ) ;
#226 = EDGE_LOOP ( 'NONE', ( #31 ) ) ;
#227 = ADVANCED_BREP_SHAPE_REPRESENTATION ( '321467', ( #133, #134, #33 ), #109 ) ;
#228 = DATE_AND_TIME ( #19, #169 ) ;
#229 = SHAPE_DEFINITION_REPRESENTATION ( #81, #227 ) ;
#230 = APPROVAL_PERSON_ORGANIZATION ( #6, #74, #168 ) ;
#231 = FACE_BOUND ( 'NONE', #240, .T. ) ;
#232 = PERSON_AND_ORGANIZATION ( #26, #9 ) ;
#233 = FACE_OUTER_BOUND ( 'NONE', #51, .T. ) ;
#234 = CARTESIAN_POINT ( 'NONE',  ( 0.0000000000000000000, 0.0000000000000000000, 0.0000000000000000000 ) ) ;
#235 = ORIENTED_EDGE ( 'NONE', *, *, #118, .T. ) ;
#236 = CIRCLE ( 'NONE', #224, 1.599999999999994982 ) ;
#237 = CC_DESIGN_APPROVAL ( #29, ( #96 ) ) ;
#238 = CARTESIAN_POINT ( 'NONE',  ( 4.389947310313331570E-14, 6.717601913617995949E-15, 12.57330881730531047 ) ) ;
#239 = FACE_OUTER_BOUND ( 'NONE', #126, .T. ) ;
#240 = EDGE_LOOP ( 'NONE', ( #77 ) ) ;
#241 = CARTESIAN_POINT ( 'NONE',  ( 4.389947310313330939E-14, 2.818999999999998174, 12.57330881730530869 ) ) ;
#242 = CARTESIAN_POINT ( 'NONE',  ( 4.389947310313331570E-14, 6.717601913617995949E-15, 12.57330881730531047 ) ) ;
#243 = CC_DESIGN_PERSON_AND_ORGANIZATION_ASSIGNMENT ( #111, #76, ( #32 ) ) ;
ENDSEC;
END-ISO-10303-21;
