ISO-10303-21;
HEADER;
FILE_DESCRIPTION (( 'STEP AP203' ),
    '1' );
FILE_NAME ('321466.step',
    '2021-11-26T10:04:06',
    ( '' ),
    ( '' ),
    'SwSTEP 2.0',
    'SolidWorks 2019',
    '' );
FILE_SCHEMA (( 'CONFIG_CONTROL_DESIGN' ));
ENDSEC;

DATA;
#1 = DIRECTION ( 'NONE',  ( -3.491481338843133355E-15, 9.031770143711729009E-17, -1.000000000000000000 ) ) ;
#2 = MECHANICAL_CONTEXT ( 'NONE', #225, 'mechanical' ) ;
#3 = CARTESIAN_POINT ( 'NONE',  ( 4.392971021849609074E-14, -1.136374526076614820E-15, 12.58196907134315445 ) ) ;
#4 = CC_DESIGN_DATE_AND_TIME_ASSIGNMENT ( #74, #211, ( #62 ) ) ;
#5 = COORDINATED_UNIVERSAL_TIME_OFFSET ( 1, 0, .AHEAD. ) ;
#6 = ORIENTED_EDGE ( 'NONE', *, *, #170, .F. ) ;
#7 = AXIS2_PLACEMENT_3D ( 'NONE', #44, #41, #121 ) ;
#8 = FACE_OUTER_BOUND ( 'NONE', #201, .T. ) ;
#9 = VERTEX_POINT ( 'NONE', #182 ) ;
#10 = CARTESIAN_POINT ( 'NONE',  ( 1.396592535537253342E-15, 2.813999999999997836, 0.3999999999999999667 ) ) ;
#11 = DIRECTION ( 'NONE',  ( 0.0000000000000000000, 1.000000000000000000, 0.0000000000000000000 ) ) ;
#12 = ORGANIZATION ( 'UNSPECIFIED', 'UNSPECIFIED', '' ) ;
#13 = ORIENTED_EDGE ( 'NONE', *, *, #130, .T. ) ;
#14 = APPROVAL ( #151, 'UNSPECIFIED' ) ;
#15 = PRODUCT_DEFINITION_SHAPE ( 'NONE', 'NONE',  #59 ) ;
#16 = LOCAL_TIME ( 11, 4, 6.000000000000000000, #214 ) ;
#17 = DIRECTION ( 'NONE',  ( -3.491481338843133355E-15, 9.031770143711729009E-17, -1.000000000000000000 ) ) ;
#18 = COORDINATED_UNIVERSAL_TIME_OFFSET ( 1, 0, .AHEAD. ) ;
#19 = FACE_OUTER_BOUND ( 'NONE', #112, .T. ) ;
#20 = EDGE_CURVE ( 'NONE', #202, #202, #109, .T. ) ;
#21 = DATE_AND_TIME ( #134, #148 ) ;
#22 = CARTESIAN_POINT ( 'NONE',  ( 2.779219145719134403E-13, -7.189289034394536528E-15, 79.60000000000000853 ) ) ;
#23 = APPROVAL_DATE_TIME ( #21, #14 ) ;
#24 = DIRECTION ( 'NONE',  ( 0.0000000000000000000, 1.000000000000000000, 0.0000000000000000000 ) ) ;
#25 = PERSON_AND_ORGANIZATION ( #224, #12 ) ;
#26 = DIRECTION ( 'NONE',  ( 1.863537863820409339E-30, -1.000000000000000000, 5.337384573958150939E-16 ) ) ;
#27 = CARTESIAN_POINT ( 'NONE',  ( -6.842277657836020854E-46, 2.583059892324147899, 0.0000000000000000000 ) ) ;
#28 = MANIFOLD_SOLID_BREP ( 'Corps-Déplacer/Copier1[1]', #132 ) ;
#29 = FACE_OUTER_BOUND ( 'NONE', #241, .T. ) ;
#30 = VERTEX_POINT ( 'NONE', #10 ) ;
#31 = DIRECTION ( 'NONE',  ( -3.491481338843133355E-15, 9.031770143711729009E-17, -1.000000000000000000 ) ) ;
#32 = DIRECTION ( 'NONE',  ( 0.0000000000000000000, 1.000000000000000000, 0.0000000000000000000 ) ) ;
#33 = ADVANCED_BREP_SHAPE_REPRESENTATION ( '321466', ( #28, #194, #234 ), #127 ) ;
#34 = ORIENTED_EDGE ( 'NONE', *, *, #168, .T. ) ;
#35 = CC_DESIGN_PERSON_AND_ORGANIZATION_ASSIGNMENT ( #80, #197, ( #108 ) ) ;
#36 = AXIS2_PLACEMENT_3D ( 'NONE', #172, #140, #99 ) ;
#37 = AXIS2_PLACEMENT_3D ( 'NONE', #237, #143, #220 ) ;
#38 = PERSON_AND_ORGANIZATION ( #224, #12 ) ;
#39 = PLANE ( 'NONE',  #7 ) ;
#40 = CARTESIAN_POINT ( 'NONE',  ( 0.0000000000000000000, 0.0000000000000000000, 0.0000000000000000000 ) ) ;
#41 = DIRECTION ( 'NONE',  ( -3.491481338843133355E-15, 9.031770143711729009E-17, -1.000000000000000000 ) ) ;
#42 = PRODUCT_RELATED_PRODUCT_CATEGORY ( 'detail', '', ( #90 ) ) ;
#43 = CALENDAR_DATE ( 2021, 26, 11 ) ;
#44 = CARTESIAN_POINT ( 'NONE',  ( 4.392971021849608443E-14, 2.813999999999997836, 12.58196907134315268 ) ) ;
#45 = DATE_AND_TIME ( #227, #87 ) ;
#46 = CC_DESIGN_PERSON_AND_ORGANIZATION_ASSIGNMENT ( #60, #199, ( #62 ) ) ;
#47 = ORIENTED_EDGE ( 'NONE', *, *, #111, .F. ) ;
#48 = CYLINDRICAL_SURFACE ( 'NONE', #208, 2.813999999999994284 ) ;
#49 = AXIS2_PLACEMENT_3D ( 'NONE', #176, #120, #24 ) ;
#50 = LOCAL_TIME ( 11, 4, 6.000000000000000000, #18 ) ;
#51 = VERTEX_POINT ( 'NONE', #126 ) ;
#52 = CONICAL_SURFACE ( 'NONE', #86, 2.583059892324147899, 0.5235987755982985936 ) ;
#53 = DIRECTION ( 'NONE',  ( -3.153425691349006731E-31, -1.000000000000000000, -9.031770143711729009E-17 ) ) ;
#54 = DATE_TIME_ROLE ( 'creation_date' ) ;
#55 = CIRCLE ( 'NONE', #189, 1.599999999999994982 ) ;
#56 = DESIGN_CONTEXT ( 'detailed design', #186, 'design' ) ;
#57 = SECURITY_CLASSIFICATION_LEVEL ( 'unclassified' ) ;
#58 = CYLINDRICAL_SURFACE ( 'NONE', #203, 1.999999999999993561 ) ;
#59 = PRODUCT_DEFINITION ( 'UNKNOWN', '', #108, #56 ) ;
#60 = PERSON_AND_ORGANIZATION ( #224, #12 ) ;
#61 = APPROVAL_ROLE ( '' ) ;
#62 = SECURITY_CLASSIFICATION ( '', '', #57 ) ;
#63 = DIRECTION ( 'NONE',  ( 1.000000000000000000, 0.0000000000000000000, 0.0000000000000000000 ) ) ;
#64 = ORIENTED_EDGE ( 'NONE', *, *, #111, .T. ) ;
#65 = FACE_OUTER_BOUND ( 'NONE', #209, .T. ) ;
#66 = AXIS2_PLACEMENT_3D ( 'NONE', #79, #156, #212 ) ;
#67 =( LENGTH_UNIT ( ) NAMED_UNIT ( * ) SI_UNIT ( .MILLI., .METRE. ) );
#68 =( NAMED_UNIT ( * ) SI_UNIT ( $, .STERADIAN. ) SOLID_ANGLE_UNIT ( ) );
#69 = FACE_OUTER_BOUND ( 'NONE', #117, .T. ) ;
#70 = CONICAL_SURFACE ( 'NONE', #100, 2.813999999999999169, 0.5235987755982929315 ) ;
#71 = UNCERTAINTY_MEASURE_WITH_UNIT (LENGTH_MEASURE( 1.000000000000000082E-05 ), #67, 'distance_accuracy_value', 'NONE');
#72 = PERSON_AND_ORGANIZATION ( #224, #12 ) ;
#73 = CC_DESIGN_PERSON_AND_ORGANIZATION_ASSIGNMENT ( #78, #118, ( #59 ) ) ;
#74 = DATE_AND_TIME ( #243, #238 ) ;
#75 = DIRECTION ( 'NONE',  ( 0.0000000000000000000, 1.000000000000000000, 0.0000000000000000000 ) ) ;
#76 = APPROVAL_STATUS ( 'not_yet_approved' ) ;
#77 = PLANE ( 'NONE',  #165 ) ;
#78 = PERSON_AND_ORGANIZATION ( #224, #12 ) ;
#79 = CARTESIAN_POINT ( 'NONE',  ( 4.813629913861918789E-30, 7.358536836832403306E-31, 1.378678402290091058E-15 ) ) ;
#80 = PERSON_AND_ORGANIZATION ( #224, #12 ) ;
#81 = CONICAL_SURFACE ( 'NONE', #142, 1.999999999999995337, 0.7853981633974516097 ) ;
#82 = ORIENTED_EDGE ( 'NONE', *, *, #130, .F. ) ;
#83 = EDGE_LOOP ( 'NONE', ( #64 ) ) ;
#84 = CARTESIAN_POINT ( 'NONE',  ( -2.406814956930959395E-30, 2.583059892324147899, -6.893392011450455289E-16 ) ) ;
#85 = ADVANCED_FACE ( 'NONE', ( #8 ), #39, .T. ) ;
#86 = AXIS2_PLACEMENT_3D ( 'NONE', #196, #228, #26 ) ;
#87 = LOCAL_TIME ( 11, 4, 6.000000000000000000, #5 ) ;
#88 = DIRECTION ( 'NONE',  ( -3.491481338843133355E-15, 9.031770143711729009E-17, -1.000000000000000000 ) ) ;
#89 = DIRECTION ( 'NONE',  ( -3.491481338843133355E-15, -5.337384573958151925E-16, -1.000000000000000000 ) ) ;
#90 = PRODUCT ( '321466', '321466', '', ( #2 ) ) ;
#91 = ORIENTED_EDGE ( 'NONE', *, *, #170, .T. ) ;
#92 = EDGE_LOOP ( 'NONE', ( #187 ) ) ;
#93 = FACE_BOUND ( 'NONE', #192, .T. ) ;
#94 = AXIS2_PLACEMENT_3D ( 'NONE', #145, #144, #223 ) ;
#95 = DIRECTION ( 'NONE',  ( 3.153425691349006731E-31, 1.000000000000000000, 9.031770143711729009E-17 ) ) ;
#96 = DIRECTION ( 'NONE',  ( 0.0000000000000000000, 0.0000000000000000000, 1.000000000000000000 ) ) ;
#97 = FACE_OUTER_BOUND ( 'NONE', #101, .T. ) ;
#98 = DATE_AND_TIME ( #43, #16 ) ;
#99 = DIRECTION ( 'NONE',  ( 0.0000000000000000000, 1.000000000000000000, 0.0000000000000000000 ) ) ;
#100 = AXIS2_PLACEMENT_3D ( 'NONE', #185, #31, #11 ) ;
#101 = EDGE_LOOP ( 'NONE', ( #91 ) ) ;
#102 = CC_DESIGN_APPROVAL ( #137, ( #108 ) ) ;
#103 = CIRCLE ( 'NONE', #49, 1.999999999999991784 ) ;
#104 = VERTEX_POINT ( 'NONE', #181 ) ;
#105 = ADVANCED_FACE ( 'NONE', ( #97, #152 ), #52, .T. ) ;
#106 = CARTESIAN_POINT ( 'NONE',  ( 2.779219145719134403E-13, 1.999999999999988010, 79.60000000000000853 ) ) ;
#107 = PLANE ( 'NONE',  #129 ) ;
#108 = PRODUCT_DEFINITION_FORMATION_WITH_SPECIFIED_SOURCE ( 'ANY', '', #90, .NOT_KNOWN. ) ;
#109 = CIRCLE ( 'NONE', #66, 2.583059892324147899 ) ;
#110 = APPROVAL_PERSON_ORGANIZATION ( #139, #137, #61 ) ;
#111 = EDGE_CURVE ( 'NONE', #104, #104, #103, .T. ) ;
#112 = EDGE_LOOP ( 'NONE', ( #47 ) ) ;
#113 = CIRCLE ( 'NONE', #94, 2.813999999999991619 ) ;
#114 = APPROVAL_STATUS ( 'not_yet_approved' ) ;
#115 = FACE_OUTER_BOUND ( 'NONE', #138, .T. ) ;
#116 = PERSON_AND_ORGANIZATION_ROLE ( 'design_owner' ) ;
#117 = EDGE_LOOP ( 'NONE', ( #213 ) ) ;
#118 = PERSON_AND_ORGANIZATION_ROLE ( 'creator' ) ;
#119 = ORIENTED_EDGE ( 'NONE', *, *, #125, .T. ) ;
#120 = DIRECTION ( 'NONE',  ( -3.491481338843133355E-15, 9.031770143711729009E-17, -1.000000000000000000 ) ) ;
#121 = DIRECTION ( 'NONE',  ( 3.153425691349006731E-31, 1.000000000000000000, 9.031770143711729009E-17 ) ) ;
#122 = DIRECTION ( 'NONE',  ( -1.863537863820409689E-30, 1.000000000000000000, -5.337384573958151925E-16 ) ) ;
#123 = ADVANCED_FACE ( 'NONE', ( #93, #115 ), #81, .T. ) ;
#124 = VERTEX_POINT ( 'NONE', #106 ) ;
#125 = EDGE_CURVE ( 'NONE', #124, #124, #167, .T. ) ;
#126 = CARTESIAN_POINT ( 'NONE',  ( 2.793185071074506684E-13, 1.599999999999987876, 80.00000000000000000 ) ) ;
#127 =( GEOMETRIC_REPRESENTATION_CONTEXT ( 3 ) GLOBAL_UNCERTAINTY_ASSIGNED_CONTEXT ( ( #71 ) ) GLOBAL_UNIT_ASSIGNED_CONTEXT ( ( #67, #184, #68 ) ) REPRESENTATION_CONTEXT ( 'NONE', 'WORKASPACE' ) );
#128 = APPROVAL ( #76, 'UNSPECIFIED' ) ;
#129 = AXIS2_PLACEMENT_3D ( 'NONE', #235, #233, #53 ) ;
#130 = EDGE_CURVE ( 'NONE', #51, #51, #55, .T. ) ;
#131 = APPROVAL_DATE_TIME ( #45, #137 ) ;
#132 = CLOSED_SHELL ( 'NONE', ( #178, #123, #147, #173, #85 ) ) ;
#133 = EDGE_LOOP ( 'NONE', ( #119 ) ) ;
#134 = CALENDAR_DATE ( 2021, 26, 11 ) ;
#135 = DIRECTION ( 'NONE',  ( -3.491481338843133355E-15, 9.031770143711729009E-17, -1.000000000000000000 ) ) ;
#136 = DIRECTION ( 'NONE',  ( 3.491481338843133355E-15, 5.337384573958151925E-16, 1.000000000000000000 ) ) ;
#137 = APPROVAL ( #114, 'UNSPECIFIED' ) ;
#138 = EDGE_LOOP ( 'NONE', ( #200 ) ) ;
#139 = PERSON_AND_ORGANIZATION ( #224, #12 ) ;
#140 = DIRECTION ( 'NONE',  ( -3.491481338843133355E-15, 9.031770143711729009E-17, -1.000000000000000000 ) ) ;
#141 = FACE_OUTER_BOUND ( 'NONE', #231, .T. ) ;
#142 = AXIS2_PLACEMENT_3D ( 'NONE', #22, #17, #215 ) ;
#143 = DIRECTION ( 'NONE',  ( -3.491481338843133355E-15, -5.337384573958151925E-16, -1.000000000000000000 ) ) ;
#144 = DIRECTION ( 'NONE',  ( -3.491481338843133355E-15, -5.337384573958151925E-16, -1.000000000000000000 ) ) ;
#145 = CARTESIAN_POINT ( 'NONE',  ( 4.392971021849609705E-14, 6.715480763140552960E-15, 12.58196907134315623 ) ) ;
#146 = CIRCLE ( 'NONE', #37, 2.813999999999997836 ) ;
#147 = ADVANCED_FACE ( 'NONE', ( #158, #19 ), #58, .T. ) ;
#148 = LOCAL_TIME ( 11, 4, 6.000000000000000000, #226 ) ;
#149 = CLOSED_SHELL ( 'NONE', ( #154, #217, #105, #210 ) ) ;
#150 = APPROVAL_PERSON_ORGANIZATION ( #191, #128, #157 ) ;
#151 = APPROVAL_STATUS ( 'not_yet_approved' ) ;
#152 = FACE_BOUND ( 'NONE', #207, .T. ) ;
#153 = CARTESIAN_POINT ( 'NONE',  ( 0.0000000000000000000, 0.0000000000000000000, 0.0000000000000000000 ) ) ;
#154 = ADVANCED_FACE ( 'NONE', ( #175 ), #77, .T. ) ;
#155 = PERSON_AND_ORGANIZATION_ROLE ( 'creator' ) ;
#156 = DIRECTION ( 'NONE',  ( -3.491481338843133355E-15, -5.337384573958151925E-16, -1.000000000000000000 ) ) ;
#157 = APPROVAL_ROLE ( '' ) ;
#158 = FACE_OUTER_BOUND ( 'NONE', #133, .T. ) ;
#159 = DIRECTION ( 'NONE',  ( -3.491481338843133355E-15, -5.337384573958151925E-16, -1.000000000000000000 ) ) ;
#160 = CARTESIAN_POINT ( 'NONE',  ( 0.0000000000000000000, 0.0000000000000000000, 0.0000000000000000000 ) ) ;
#161 = APPROVAL_PERSON_ORGANIZATION ( #72, #14, #230 ) ;
#162 = CARTESIAN_POINT ( 'NONE',  ( 4.392971021849609074E-14, 2.813999999999997836, 12.58196907134315445 ) ) ;
#163 = EDGE_CURVE ( 'NONE', #9, #9, #221, .T. ) ;
#164 = DIRECTION ( 'NONE',  ( -1.863537863820409689E-30, 1.000000000000000000, -5.337384573958151925E-16 ) ) ;
#165 = AXIS2_PLACEMENT_3D ( 'NONE', #229, #136, #198 ) ;
#166 = CC_DESIGN_SECURITY_CLASSIFICATION ( #62, ( #108 ) ) ;
#167 = CIRCLE ( 'NONE', #36, 1.999999999999995337 ) ;
#168 = EDGE_CURVE ( 'NONE', #219, #219, #113, .T. ) ;
#169 = ORIENTED_EDGE ( 'NONE', *, *, #163, .T. ) ;
#170 = EDGE_CURVE ( 'NONE', #30, #30, #146, .T. ) ;
#171 = EDGE_LOOP ( 'NONE', ( #188 ) ) ;
#172 = CARTESIAN_POINT ( 'NONE',  ( 2.779219145719134403E-13, -7.189289034394536528E-15, 79.60000000000000853 ) ) ;
#173 = ADVANCED_FACE ( 'NONE', ( #216, #204 ), #70, .T. ) ;
#174 = CALENDAR_DATE ( 2021, 26, 11 ) ;
#175 = FACE_OUTER_BOUND ( 'NONE', #92, .T. ) ;
#176 = CARTESIAN_POINT ( 'NONE',  ( 4.885231259955590439E-14, -1.263712492114123682E-15, 13.99185842870425134 ) ) ;
#177 = CARTESIAN_POINT ( 'NONE',  ( 2.793185071074506684E-13, -7.225416114969383207E-15, 80.00000000000000000 ) ) ;
#178 = ADVANCED_FACE ( 'NONE', ( #29 ), #107, .T. ) ;
#179 = AXIS2_PLACEMENT_3D ( 'NONE', #84, #89, #164 ) ;
#180 = DATE_AND_TIME ( #174, #50 ) ;
#181 = CARTESIAN_POINT ( 'NONE',  ( 4.885231259955590439E-14, 1.999999999999990452, 13.99185842870425134 ) ) ;
#182 = CARTESIAN_POINT ( 'NONE',  ( 4.392971021849609074E-14, 2.813999999999997836, 12.58196907134315445 ) ) ;
#183 = CC_DESIGN_DATE_AND_TIME_ASSIGNMENT ( #98, #54, ( #59 ) ) ;
#184 =( NAMED_UNIT ( * ) PLANE_ANGLE_UNIT ( ) SI_UNIT ( $, .RADIAN. ) );
#185 = CARTESIAN_POINT ( 'NONE',  ( 4.392971021849609074E-14, -1.136374526076614820E-15, 12.58196907134315445 ) ) ;
#186 = APPLICATION_CONTEXT ( 'configuration controlled 3d designs of mechanical parts and assemblies' ) ;
#187 = ORIENTED_EDGE ( 'NONE', *, *, #168, .F. ) ;
#188 = ORIENTED_EDGE ( 'NONE', *, *, #163, .F. ) ;
#189 = AXIS2_PLACEMENT_3D ( 'NONE', #177, #1, #75 ) ;
#190 = CC_DESIGN_APPROVAL ( #14, ( #59 ) ) ;
#191 = PERSON_AND_ORGANIZATION ( #224, #12 ) ;
#192 = EDGE_LOOP ( 'NONE', ( #13 ) ) ;
#193 = CC_DESIGN_PERSON_AND_ORGANIZATION_ASSIGNMENT ( #38, #155, ( #108 ) ) ;
#194 = MANIFOLD_SOLID_BREP ( 'Corps-Déplacer/Copier1[2]', #149 ) ;
#195 = COORDINATED_UNIVERSAL_TIME_OFFSET ( 1, 0, .AHEAD. ) ;
#196 = CARTESIAN_POINT ( 'NONE',  ( 4.813629913861918789E-30, 7.358536836832403306E-31, 1.378678402290091058E-15 ) ) ;
#197 = PERSON_AND_ORGANIZATION_ROLE ( 'design_supplier' ) ;
#198 = DIRECTION ( 'NONE',  ( 1.863537863820409689E-30, -1.000000000000000000, 5.337384573958151925E-16 ) ) ;
#199 = PERSON_AND_ORGANIZATION_ROLE ( 'classification_officer' ) ;
#200 = ORIENTED_EDGE ( 'NONE', *, *, #125, .F. ) ;
#201 = EDGE_LOOP ( 'NONE', ( #169 ) ) ;
#202 = VERTEX_POINT ( 'NONE', #27 ) ;
#203 = AXIS2_PLACEMENT_3D ( 'NONE', #153, #135, #95 ) ;
#204 = FACE_OUTER_BOUND ( 'NONE', #171, .T. ) ;
#205 = PLANE ( 'NONE',  #179 ) ;
#206 = AXIS2_PLACEMENT_3D ( 'NONE', #3, #88, #32 ) ;
#207 = EDGE_LOOP ( 'NONE', ( #232 ) ) ;
#208 = AXIS2_PLACEMENT_3D ( 'NONE', #160, #159, #122 ) ;
#209 = EDGE_LOOP ( 'NONE', ( #34 ) ) ;
#210 = ADVANCED_FACE ( 'NONE', ( #69 ), #205, .T. ) ;
#211 = DATE_TIME_ROLE ( 'classification_date' ) ;
#212 = DIRECTION ( 'NONE',  ( -1.863537863820409339E-30, 1.000000000000000000, -5.337384573958150939E-16 ) ) ;
#213 = ORIENTED_EDGE ( 'NONE', *, *, #20, .T. ) ;
#214 = COORDINATED_UNIVERSAL_TIME_OFFSET ( 1, 0, .AHEAD. ) ;
#215 = DIRECTION ( 'NONE',  ( 0.0000000000000000000, 1.000000000000000000, 0.0000000000000000000 ) ) ;
#216 = FACE_BOUND ( 'NONE', #83, .T. ) ;
#217 = ADVANCED_FACE ( 'NONE', ( #65, #141 ), #48, .T. ) ;
#218 = SHAPE_DEFINITION_REPRESENTATION ( #15, #33 ) ;
#219 = VERTEX_POINT ( 'NONE', #162 ) ;
#220 = DIRECTION ( 'NONE',  ( -1.847907196107157310E-30, 1.000000000000000000, -5.394040659131866722E-16 ) ) ;
#221 = CIRCLE ( 'NONE', #206, 2.813999999999999169 ) ;
#222 = CC_DESIGN_APPROVAL ( #128, ( #62 ) ) ;
#223 = DIRECTION ( 'NONE',  ( -2.190112232423302548E-30, 1.000000000000000000, -6.164617896150719052E-16 ) ) ;
#224 = PERSON ( 'UNSPECIFIED', 'UNSPECIFIED', 'UNSPECIFIED', ('UNSPECIFIED'), ('UNSPECIFIED'), ('UNSPECIFIED') ) ;
#225 = APPLICATION_CONTEXT ( 'configuration controlled 3d designs of mechanical parts and assemblies' ) ;
#226 = COORDINATED_UNIVERSAL_TIME_OFFSET ( 1, 0, .AHEAD. ) ;
#227 = CALENDAR_DATE ( 2021, 26, 11 ) ;
#228 = DIRECTION ( 'NONE',  ( 3.491481338843133355E-15, 5.337384573958151925E-16, 1.000000000000000000 ) ) ;
#229 = CARTESIAN_POINT ( 'NONE',  ( 4.392971021849608443E-14, 6.715480763140552172E-15, 12.58196907134315268 ) ) ;
#230 = APPROVAL_ROLE ( '' ) ;
#231 = EDGE_LOOP ( 'NONE', ( #6 ) ) ;
#232 = ORIENTED_EDGE ( 'NONE', *, *, #20, .F. ) ;
#233 = DIRECTION ( 'NONE',  ( 3.491481338843133355E-15, -9.031770143711729009E-17, 1.000000000000000000 ) ) ;
#234 = AXIS2_PLACEMENT_3D ( 'NONE', #40, #96, #63 ) ;
#235 = CARTESIAN_POINT ( 'NONE',  ( 2.793185071074506684E-13, -7.225416114969383207E-15, 80.00000000000000000 ) ) ;
#236 = APPROVAL_DATE_TIME ( #180, #128 ) ;
#237 = CARTESIAN_POINT ( 'NONE',  ( 1.396592535537258470E-15, 2.134953829583268905E-16, 0.4000000000000014655 ) ) ;
#238 = LOCAL_TIME ( 11, 4, 6.000000000000000000, #195 ) ;
#239 = APPLICATION_PROTOCOL_DEFINITION ( 'international standard', 'config_control_design', 1994, #225 ) ;
#240 = CC_DESIGN_PERSON_AND_ORGANIZATION_ASSIGNMENT ( #25, #116, ( #90 ) ) ;
#241 = EDGE_LOOP ( 'NONE', ( #82 ) ) ;
#242 = APPLICATION_PROTOCOL_DEFINITION ( 'international standard', 'config_control_design', 1994, #186 ) ;
#243 = CALENDAR_DATE ( 2021, 26, 11 ) ;
ENDSEC;
END-ISO-10303-21;
