ISO-10303-21;
HEADER;
FILE_DESCRIPTION (( 'STEP AP203' ),
    '1' );
FILE_NAME ('321465.step',
    '2021-11-26T10:04:06',
    ( '' ),
    ( '' ),
    'SwSTEP 2.0',
    'SolidWorks 2019',
    '' );
FILE_SCHEMA (( 'CONFIG_CONTROL_DESIGN' ));
ENDSEC;

DATA;
#1 = CONICAL_SURFACE ( 'NONE', #51, 2.578059892324148450, 0.5235987755982978165 ) ;
#2 = CARTESIAN_POINT ( 'NONE',  ( 4.885231259955590439E-14, 1.999999999999990452, 13.99185842870425134 ) ) ;
#3 = CC_DESIGN_APPROVAL ( #63, ( #155 ) ) ;
#4 = PLANE ( 'NONE',  #42 ) ;
#5 = AXIS2_PLACEMENT_3D ( 'NONE', #204, #227, #73 ) ;
#6 = CIRCLE ( 'NONE', #25, 1.999999999999995337 ) ;
#7 = EDGE_LOOP ( 'NONE', ( #153 ) ) ;
#8 = APPROVAL_ROLE ( '' ) ;
#9 = EDGE_CURVE ( 'NONE', #183, #183, #6, .T. ) ;
#10 = CARTESIAN_POINT ( 'NONE',  ( 2.779219145719134403E-13, -7.189289034394536528E-15, 79.60000000000000853 ) ) ;
#11 = PERSON_AND_ORGANIZATION_ROLE ( 'design_owner' ) ;
#12 = APPROVAL_PERSON_ORGANIZATION ( #36, #150, #86 ) ;
#13 = APPROVAL ( #101, 'UNSPECIFIED' ) ;
#14 = EDGE_LOOP ( 'NONE', ( #143 ) ) ;
#15 = PERSON_AND_ORGANIZATION_ROLE ( 'creator' ) ;
#16 = CARTESIAN_POINT ( 'NONE',  ( 4.799491213275199154E-30, 7.329560753981169627E-31, 1.374628917497082015E-15 ) ) ;
#17 = VERTEX_POINT ( 'NONE', #87 ) ;
#18 = DIRECTION ( 'NONE',  ( -1.851196457759181347E-30, 1.000000000000000000, -5.403642013099705879E-16 ) ) ;
#19 = CARTESIAN_POINT ( 'NONE',  ( 2.779219145719134403E-13, 1.999999999999988010, 79.60000000000000853 ) ) ;
#20 = CC_DESIGN_PERSON_AND_ORGANIZATION_ASSIGNMENT ( #124, #67, ( #155 ) ) ;
#21 = CARTESIAN_POINT ( 'NONE',  ( 1.396592535537258470E-15, 2.132811454985779426E-16, 0.4000000000000014655 ) ) ;
#22 = CC_DESIGN_PERSON_AND_ORGANIZATION_ASSIGNMENT ( #217, #121, ( #117 ) ) ;
#23 = PRODUCT_RELATED_PRODUCT_CATEGORY ( 'detail', '', ( #39 ) ) ;
#24 = AXIS2_PLACEMENT_3D ( 'NONE', #43, #191, #209 ) ;
#25 = AXIS2_PLACEMENT_3D ( 'NONE', #10, #83, #80 ) ;
#26 = MECHANICAL_CONTEXT ( 'NONE', #68, 'mechanical' ) ;
#27 = CARTESIAN_POINT ( 'NONE',  ( 2.793185071074506684E-13, -7.225416114969383207E-15, 80.00000000000000000 ) ) ;
#28 = APPROVAL_DATE_TIME ( #195, #150 ) ;
#29 = DATE_TIME_ROLE ( 'classification_date' ) ;
#30 = EDGE_LOOP ( 'NONE', ( #216 ) ) ;
#31 = PERSON_AND_ORGANIZATION_ROLE ( 'design_supplier' ) ;
#32 = EDGE_LOOP ( 'NONE', ( #163 ) ) ;
#33 = CALENDAR_DATE ( 2021, 26, 11 ) ;
#34 = CC_DESIGN_APPROVAL ( #150, ( #117 ) ) ;
#35 = DIRECTION ( 'NONE',  ( -3.491481338843133355E-15, -5.332028637464428720E-16, -1.000000000000000000 ) ) ;
#36 = PERSON_AND_ORGANIZATION ( #138, #180 ) ;
#37 = CARTESIAN_POINT ( 'NONE',  ( 0.0000000000000000000, 0.0000000000000000000, 0.0000000000000000000 ) ) ;
#38 = PLANE ( 'NONE',  #57 ) ;
#39 = PRODUCT ( '321465', '321465', '', ( #26 ) ) ;
#40 = DIRECTION ( 'NONE',  ( 3.491481338843133355E-15, 5.332028637464428720E-16, 1.000000000000000000 ) ) ;
#41 = CARTESIAN_POINT ( 'NONE',  ( 4.799491213275199154E-30, 7.329560753981169627E-31, 1.374628917497082015E-15 ) ) ;
#42 = AXIS2_PLACEMENT_3D ( 'NONE', #141, #231, #75 ) ;
#43 = CARTESIAN_POINT ( 'NONE',  ( 0.0000000000000000000, 0.0000000000000000000, 0.0000000000000000000 ) ) ;
#44 = CARTESIAN_POINT ( 'NONE',  ( 4.395994733385885948E-14, 2.808999999999998387, 12.59062932538099666 ) ) ;
#45 = CALENDAR_DATE ( 2021, 26, 11 ) ;
#46 = EDGE_LOOP ( 'NONE', ( #232 ) ) ;
#47 = DATE_TIME_ROLE ( 'creation_date' ) ;
#48 = EDGE_LOOP ( 'NONE', ( #100 ) ) ;
#49 = DATE_AND_TIME ( #146, #81 ) ;
#50 = SECURITY_CLASSIFICATION_LEVEL ( 'unclassified' ) ;
#51 = AXIS2_PLACEMENT_3D ( 'NONE', #16, #40, #85 ) ;
#52 = EDGE_CURVE ( 'NONE', #17, #17, #201, .T. ) ;
#53 = CYLINDRICAL_SURFACE ( 'NONE', #111, 1.999999999999993561 ) ;
#54 = DIRECTION ( 'NONE',  ( 3.153425691349006731E-31, 1.000000000000000000, 9.031770143711729009E-17 ) ) ;
#55 = CARTESIAN_POINT ( 'NONE',  ( 2.793185071074506684E-13, -7.225416114969383207E-15, 80.00000000000000000 ) ) ;
#56 = CIRCLE ( 'NONE', #77, 2.808999999999997943 ) ;
#57 = AXIS2_PLACEMENT_3D ( 'NONE', #55, #188, #182 ) ;
#58 = DIRECTION ( 'NONE',  ( 0.0000000000000000000, 1.000000000000000000, 0.0000000000000000000 ) ) ;
#59 = UNCERTAINTY_MEASURE_WITH_UNIT (LENGTH_MEASURE( 1.000000000000000082E-05 ), #210, 'distance_accuracy_value', 'NONE');
#60 = ADVANCED_FACE ( 'NONE', ( #165 ), #4, .T. ) ;
#61 = CARTESIAN_POINT ( 'NONE',  ( 4.395994733385885948E-14, 2.808999999999998387, 12.59062932538099666 ) ) ;
#62 = APPLICATION_PROTOCOL_DEFINITION ( 'international standard', 'config_control_design', 1994, #68 ) ;
#63 = APPROVAL ( #220, 'UNSPECIFIED' ) ;
#64 = EDGE_LOOP ( 'NONE', ( #238 ) ) ;
#65 = COORDINATED_UNIVERSAL_TIME_OFFSET ( 1, 0, .AHEAD. ) ;
#66 = DESIGN_CONTEXT ( 'detailed design', #159, 'design' ) ;
#67 = PERSON_AND_ORGANIZATION_ROLE ( 'creator' ) ;
#68 = APPLICATION_CONTEXT ( 'configuration controlled 3d designs of mechanical parts and assemblies' ) ;
#69 = FACE_OUTER_BOUND ( 'NONE', #161, .T. ) ;
#70 = DATE_AND_TIME ( #72, #115 ) ;
#71 = DIRECTION ( 'NONE',  ( -3.491481338843133355E-15, 9.031770143711729009E-17, -1.000000000000000000 ) ) ;
#72 = CALENDAR_DATE ( 2021, 26, 11 ) ;
#73 = DIRECTION ( 'NONE',  ( 0.0000000000000000000, 1.000000000000000000, 0.0000000000000000000 ) ) ;
#74 = CARTESIAN_POINT ( 'NONE',  ( 2.779219145719134403E-13, -7.189289034394536528E-15, 79.60000000000000853 ) ) ;
#75 = DIRECTION ( 'NONE',  ( -1.861667848588423002E-30, 1.000000000000000000, -5.332028637464428720E-16 ) ) ;
#76 = LOCAL_TIME ( 11, 4, 6.000000000000000000, #233 ) ;
#77 = AXIS2_PLACEMENT_3D ( 'NONE', #21, #207, #18 ) ;
#78 = CARTESIAN_POINT ( 'NONE',  ( 0.0000000000000000000, 2.578059892324148450, 0.0000000000000000000 ) ) ;
#79 = CC_DESIGN_PERSON_AND_ORGANIZATION_ASSIGNMENT ( #130, #15, ( #200 ) ) ;
#80 = DIRECTION ( 'NONE',  ( 0.0000000000000000000, 1.000000000000000000, 0.0000000000000000000 ) ) ;
#81 = LOCAL_TIME ( 11, 4, 6.000000000000000000, #65 ) ;
#82 = AXIS2_PLACEMENT_3D ( 'NONE', #241, #90, #202 ) ;
#83 = DIRECTION ( 'NONE',  ( -3.491481338843133355E-15, 9.031770143711729009E-17, -1.000000000000000000 ) ) ;
#84 = PERSON_AND_ORGANIZATION ( #138, #180 ) ;
#85 = DIRECTION ( 'NONE',  ( 1.861667848588423002E-30, -1.000000000000000000, 5.332028637464428720E-16 ) ) ;
#86 = APPROVAL_ROLE ( '' ) ;
#87 = CARTESIAN_POINT ( 'NONE',  ( 2.793185071074506684E-13, 1.599999999999987876, 80.00000000000000000 ) ) ;
#88 = ADVANCED_FACE ( 'NONE', ( #205, #154 ), #168, .T. ) ;
#89 =( NAMED_UNIT ( * ) SI_UNIT ( $, .STERADIAN. ) SOLID_ANGLE_UNIT ( ) );
#90 = DIRECTION ( 'NONE',  ( -3.491481338843133355E-15, -5.332028637464428720E-16, -1.000000000000000000 ) ) ;
#91 = DIRECTION ( 'NONE',  ( 0.0000000000000000000, 1.000000000000000000, 0.0000000000000000000 ) ) ;
#92 = MANIFOLD_SOLID_BREP ( 'Corps-Déplacer/Copier1[1]', #116 ) ;
#93 = MANIFOLD_SOLID_BREP ( 'Corps-Déplacer/Copier1[2]', #95 ) ;
#94 = PLANE ( 'NONE',  #99 ) ;
#95 = CLOSED_SHELL ( 'NONE', ( #186, #194, #229, #60 ) ) ;
#96 = VERTEX_POINT ( 'NONE', #44 ) ;
#97 = ADVANCED_FACE ( 'NONE', ( #113 ), #38, .T. ) ;
#98 = EDGE_CURVE ( 'NONE', #240, #240, #228, .T. ) ;
#99 = AXIS2_PLACEMENT_3D ( 'NONE', #172, #148, #54 ) ;
#100 = ORIENTED_EDGE ( 'NONE', *, *, #105, .T. ) ;
#101 = APPROVAL_STATUS ( 'not_yet_approved' ) ;
#102 = EDGE_LOOP ( 'NONE', ( #193 ) ) ;
#103 = CALENDAR_DATE ( 2021, 26, 11 ) ;
#104 = PERSON_AND_ORGANIZATION ( #138, #180 ) ;
#105 = EDGE_CURVE ( 'NONE', #139, #139, #118, .T. ) ;
#106 = AXIS2_PLACEMENT_3D ( 'NONE', #167, #35, #132 ) ;
#107 = PERSON_AND_ORGANIZATION ( #138, #180 ) ;
#108 = FACE_OUTER_BOUND ( 'NONE', #30, .T. ) ;
#109 = DIRECTION ( 'NONE',  ( 3.153425691349006731E-31, 1.000000000000000000, 9.031770143711729009E-17 ) ) ;
#110 = DIRECTION ( 'NONE',  ( 1.861667848588423002E-30, -1.000000000000000000, 5.332028637464428720E-16 ) ) ;
#111 = AXIS2_PLACEMENT_3D ( 'NONE', #37, #187, #109 ) ;
#112 = FACE_OUTER_BOUND ( 'NONE', #102, .T. ) ;
#113 = FACE_OUTER_BOUND ( 'NONE', #175, .T. ) ;
#114 = EDGE_CURVE ( 'NONE', #96, #96, #184, .T. ) ;
#115 = LOCAL_TIME ( 11, 4, 6.000000000000000000, #203 ) ;
#116 = CLOSED_SHELL ( 'NONE', ( #97, #170, #235, #88, #145 ) ) ;
#117 = SECURITY_CLASSIFICATION ( '', '', #50 ) ;
#118 = CIRCLE ( 'NONE', #82, 2.808999999999992170 ) ;
#119 = EDGE_CURVE ( 'NONE', #208, #208, #226, .T. ) ;
#120 = ORIENTED_EDGE ( 'NONE', *, *, #52, .F. ) ;
#121 = PERSON_AND_ORGANIZATION_ROLE ( 'classification_officer' ) ;
#122 = APPROVAL_PERSON_ORGANIZATION ( #107, #13, #8 ) ;
#123 = ORIENTED_EDGE ( 'NONE', *, *, #98, .F. ) ;
#124 = PERSON_AND_ORGANIZATION ( #138, #180 ) ;
#125 = PERSON_AND_ORGANIZATION ( #138, #180 ) ;
#126 = CC_DESIGN_PERSON_AND_ORGANIZATION_ASSIGNMENT ( #125, #11, ( #39 ) ) ;
#127 = EDGE_LOOP ( 'NONE', ( #164 ) ) ;
#128 = DATE_AND_TIME ( #103, #76 ) ;
#129 = DIRECTION ( 'NONE',  ( 3.491481338843133355E-15, 5.332028637464428720E-16, 1.000000000000000000 ) ) ;
#130 = PERSON_AND_ORGANIZATION ( #138, #180 ) ;
#131 = CARTESIAN_POINT ( 'NONE',  ( 4.395994733385885948E-14, -1.137156700315174313E-15, 12.59062932538099666 ) ) ;
#132 = DIRECTION ( 'NONE',  ( -1.861667848588422651E-30, 1.000000000000000000, -5.332028637464428720E-16 ) ) ;
#133 = DIRECTION ( 'NONE',  ( -3.491481338843133355E-15, 9.031770143711729009E-17, -1.000000000000000000 ) ) ;
#134 =( GEOMETRIC_REPRESENTATION_CONTEXT ( 3 ) GLOBAL_UNCERTAINTY_ASSIGNED_CONTEXT ( ( #59 ) ) GLOBAL_UNIT_ASSIGNED_CONTEXT ( ( #210, #189, #89 ) ) REPRESENTATION_CONTEXT ( 'NONE', 'WORKASPACE' ) );
#135 = DIRECTION ( 'NONE',  ( 0.0000000000000000000, 1.000000000000000000, 0.0000000000000000000 ) ) ;
#136 = CC_DESIGN_DATE_AND_TIME_ASSIGNMENT ( #70, #29, ( #117 ) ) ;
#137 = EDGE_LOOP ( 'NONE', ( #140 ) ) ;
#138 = PERSON ( 'UNSPECIFIED', 'UNSPECIFIED', 'UNSPECIFIED', ('UNSPECIFIED'), ('UNSPECIFIED'), ('UNSPECIFIED') ) ;
#139 = VERTEX_POINT ( 'NONE', #61 ) ;
#140 = ORIENTED_EDGE ( 'NONE', *, *, #114, .T. ) ;
#141 = CARTESIAN_POINT ( 'NONE',  ( -2.399745606637599577E-30, 2.578059892324148450, -6.873144587485410076E-16 ) ) ;
#142 = EDGE_CURVE ( 'NONE', #157, #157, #56, .T. ) ;
#143 = ORIENTED_EDGE ( 'NONE', *, *, #119, .T. ) ;
#144 = LOCAL_TIME ( 11, 4, 6.000000000000000000, #199 ) ;
#145 = ADVANCED_FACE ( 'NONE', ( #243 ), #94, .T. ) ;
#146 = CALENDAR_DATE ( 2021, 26, 11 ) ;
#147 = PLANE ( 'NONE',  #234 ) ;
#148 = DIRECTION ( 'NONE',  ( -3.491481338843133355E-15, 9.031770143711729009E-17, -1.000000000000000000 ) ) ;
#149 = AXIS2_PLACEMENT_3D ( 'NONE', #27, #236, #198 ) ;
#150 = APPROVAL ( #177, 'UNSPECIFIED' ) ;
#151 = CYLINDRICAL_SURFACE ( 'NONE', #106, 2.808999999999995278 ) ;
#152 = DIRECTION ( 'NONE',  ( -3.491481338843133355E-15, 9.031770143711729009E-17, -1.000000000000000000 ) ) ;
#153 = ORIENTED_EDGE ( 'NONE', *, *, #119, .F. ) ;
#154 = FACE_OUTER_BOUND ( 'NONE', #46, .T. ) ;
#155 = PRODUCT_DEFINITION ( 'UNKNOWN', '', #200, #66 ) ;
#156 = CONICAL_SURFACE ( 'NONE', #215, 1.999999999999995337, 0.7853981633974516097 ) ;
#157 = VERTEX_POINT ( 'NONE', #230 ) ;
#158 = CC_DESIGN_PERSON_AND_ORGANIZATION_ASSIGNMENT ( #84, #31, ( #200 ) ) ;
#159 = APPLICATION_CONTEXT ( 'configuration controlled 3d designs of mechanical parts and assemblies' ) ;
#160 = AXIS2_PLACEMENT_3D ( 'NONE', #171, #133, #58 ) ;
#161 = EDGE_LOOP ( 'NONE', ( #178 ) ) ;
#162 = APPROVAL_DATE_TIME ( #49, #63 ) ;
#163 = ORIENTED_EDGE ( 'NONE', *, *, #52, .T. ) ;
#164 = ORIENTED_EDGE ( 'NONE', *, *, #142, .F. ) ;
#165 = FACE_OUTER_BOUND ( 'NONE', #214, .T. ) ;
#166 = FACE_BOUND ( 'NONE', #32, .T. ) ;
#167 = CARTESIAN_POINT ( 'NONE',  ( 0.0000000000000000000, 0.0000000000000000000, 0.0000000000000000000 ) ) ;
#168 = CONICAL_SURFACE ( 'NONE', #192, 2.808999999999999719, 0.5235987755982929315 ) ;
#169 = FACE_OUTER_BOUND ( 'NONE', #64, .T. ) ;
#170 = ADVANCED_FACE ( 'NONE', ( #166, #169 ), #156, .T. ) ;
#171 = CARTESIAN_POINT ( 'NONE',  ( 4.885231259955590439E-14, -1.263712492114123682E-15, 13.99185842870425134 ) ) ;
#172 = CARTESIAN_POINT ( 'NONE',  ( 4.395994733385887841E-14, 2.808999999999998387, 12.59062932538100199 ) ) ;
#173 = CC_DESIGN_SECURITY_CLASSIFICATION ( #117, ( #200 ) ) ;
#174 = CC_DESIGN_APPROVAL ( #13, ( #200 ) ) ;
#175 = EDGE_LOOP ( 'NONE', ( #120 ) ) ;
#176 = SHAPE_DEFINITION_REPRESENTATION ( #242, #218 ) ;
#177 = APPROVAL_STATUS ( 'not_yet_approved' ) ;
#178 = ORIENTED_EDGE ( 'NONE', *, *, #105, .F. ) ;
#179 = APPROVAL_ROLE ( '' ) ;
#180 = ORGANIZATION ( 'UNSPECIFIED', 'UNSPECIFIED', '' ) ;
#181 = APPROVAL_DATE_TIME ( #197, #13 ) ;
#182 = DIRECTION ( 'NONE',  ( -3.153425691349006731E-31, -1.000000000000000000, -9.031770143711729009E-17 ) ) ;
#183 = VERTEX_POINT ( 'NONE', #19 ) ;
#184 = CIRCLE ( 'NONE', #5, 2.808999999999999719 ) ;
#185 = FACE_BOUND ( 'NONE', #212, .T. ) ;
#186 = ADVANCED_FACE ( 'NONE', ( #69 ), #147, .T. ) ;
#187 = DIRECTION ( 'NONE',  ( -3.491481338843133355E-15, 9.031770143711729009E-17, -1.000000000000000000 ) ) ;
#188 = DIRECTION ( 'NONE',  ( 3.491481338843133355E-15, -9.031770143711729009E-17, 1.000000000000000000 ) ) ;
#189 =( NAMED_UNIT ( * ) PLANE_ANGLE_UNIT ( ) SI_UNIT ( $, .RADIAN. ) );
#190 = APPROVAL_PERSON_ORGANIZATION ( #104, #63, #179 ) ;
#191 = DIRECTION ( 'NONE',  ( 0.0000000000000000000, 0.0000000000000000000, 1.000000000000000000 ) ) ;
#192 = AXIS2_PLACEMENT_3D ( 'NONE', #131, #71, #135 ) ;
#193 = ORIENTED_EDGE ( 'NONE', *, *, #9, .T. ) ;
#194 = ADVANCED_FACE ( 'NONE', ( #206, #225 ), #151, .T. ) ;
#195 = DATE_AND_TIME ( #45, #211 ) ;
#196 = AXIS2_PLACEMENT_3D ( 'NONE', #41, #239, #224 ) ;
#197 = DATE_AND_TIME ( #33, #144 ) ;
#198 = DIRECTION ( 'NONE',  ( 0.0000000000000000000, 1.000000000000000000, 0.0000000000000000000 ) ) ;
#199 = COORDINATED_UNIVERSAL_TIME_OFFSET ( 1, 0, .AHEAD. ) ;
#200 = PRODUCT_DEFINITION_FORMATION_WITH_SPECIFIED_SOURCE ( 'ANY', '', #39, .NOT_KNOWN. ) ;
#201 = CIRCLE ( 'NONE', #149, 1.599999999999994982 ) ;
#202 = DIRECTION ( 'NONE',  ( -2.194010616603478821E-30, 1.000000000000000000, -6.175590872113962113E-16 ) ) ;
#203 = COORDINATED_UNIVERSAL_TIME_OFFSET ( 1, 0, .AHEAD. ) ;
#204 = CARTESIAN_POINT ( 'NONE',  ( 4.395994733385885948E-14, -1.137156700315174313E-15, 12.59062932538099666 ) ) ;
#205 = FACE_BOUND ( 'NONE', #14, .T. ) ;
#206 = FACE_OUTER_BOUND ( 'NONE', #48, .T. ) ;
#207 = DIRECTION ( 'NONE',  ( -3.491481338843133355E-15, -5.332028637464428720E-16, -1.000000000000000000 ) ) ;
#208 = VERTEX_POINT ( 'NONE', #2 ) ;
#209 = DIRECTION ( 'NONE',  ( 1.000000000000000000, 0.0000000000000000000, 0.0000000000000000000 ) ) ;
#210 =( LENGTH_UNIT ( ) NAMED_UNIT ( * ) SI_UNIT ( .MILLI., .METRE. ) );
#211 = LOCAL_TIME ( 11, 4, 6.000000000000000000, #213 ) ;
#212 = EDGE_LOOP ( 'NONE', ( #123 ) ) ;
#213 = COORDINATED_UNIVERSAL_TIME_OFFSET ( 1, 0, .AHEAD. ) ;
#214 = EDGE_LOOP ( 'NONE', ( #219 ) ) ;
#215 = AXIS2_PLACEMENT_3D ( 'NONE', #74, #152, #91 ) ;
#216 = ORIENTED_EDGE ( 'NONE', *, *, #142, .T. ) ;
#217 = PERSON_AND_ORGANIZATION ( #138, #180 ) ;
#218 = ADVANCED_BREP_SHAPE_REPRESENTATION ( '321465', ( #92, #93, #24 ), #134 ) ;
#219 = ORIENTED_EDGE ( 'NONE', *, *, #98, .T. ) ;
#220 = APPROVAL_STATUS ( 'not_yet_approved' ) ;
#221 = CC_DESIGN_DATE_AND_TIME_ASSIGNMENT ( #128, #47, ( #155 ) ) ;
#222 = CARTESIAN_POINT ( 'NONE',  ( 4.395994733385887841E-14, 6.713359612663094195E-15, 12.59062932538100199 ) ) ;
#223 = FACE_OUTER_BOUND ( 'NONE', #7, .T. ) ;
#224 = DIRECTION ( 'NONE',  ( -1.861667848588423002E-30, 1.000000000000000000, -5.332028637464428720E-16 ) ) ;
#225 = FACE_OUTER_BOUND ( 'NONE', #127, .T. ) ;
#226 = CIRCLE ( 'NONE', #160, 1.999999999999991784 ) ;
#227 = DIRECTION ( 'NONE',  ( -3.491481338843133355E-15, 9.031770143711729009E-17, -1.000000000000000000 ) ) ;
#228 = CIRCLE ( 'NONE', #196, 2.578059892324148450 ) ;
#229 = ADVANCED_FACE ( 'NONE', ( #108, #185 ), #1, .T. ) ;
#230 = CARTESIAN_POINT ( 'NONE',  ( 1.396592535537253342E-15, 2.808999999999997943, 0.3999999999999999667 ) ) ;
#231 = DIRECTION ( 'NONE',  ( -3.491481338843133355E-15, -5.332028637464428720E-16, -1.000000000000000000 ) ) ;
#232 = ORIENTED_EDGE ( 'NONE', *, *, #114, .F. ) ;
#233 = COORDINATED_UNIVERSAL_TIME_OFFSET ( 1, 0, .AHEAD. ) ;
#234 = AXIS2_PLACEMENT_3D ( 'NONE', #222, #129, #110 ) ;
#235 = ADVANCED_FACE ( 'NONE', ( #112, #223 ), #53, .T. ) ;
#236 = DIRECTION ( 'NONE',  ( -3.491481338843133355E-15, 9.031770143711729009E-17, -1.000000000000000000 ) ) ;
#237 = APPLICATION_PROTOCOL_DEFINITION ( 'international standard', 'config_control_design', 1994, #159 ) ;
#238 = ORIENTED_EDGE ( 'NONE', *, *, #9, .F. ) ;
#239 = DIRECTION ( 'NONE',  ( -3.491481338843133355E-15, -5.332028637464428720E-16, -1.000000000000000000 ) ) ;
#240 = VERTEX_POINT ( 'NONE', #78 ) ;
#241 = CARTESIAN_POINT ( 'NONE',  ( 4.395994733385886579E-14, 6.713359612663092617E-15, 12.59062932538099844 ) ) ;
#242 = PRODUCT_DEFINITION_SHAPE ( 'NONE', 'NONE',  #155 ) ;
#243 = FACE_OUTER_BOUND ( 'NONE', #137, .T. ) ;
ENDSEC;
END-ISO-10303-21;
