ISO-10303-21;
HEADER;
FILE_DESCRIPTION (( 'STEP AP203' ),
    '1' );
FILE_NAME ('321464.step',
    '2021-11-26T10:04:05',
    ( '' ),
    ( '' ),
    'SwSTEP 2.0',
    'SolidWorks 2019',
    '' );
FILE_SCHEMA (( 'CONFIG_CONTROL_DESIGN' ));
ENDSEC;

DATA;
#1 = MANIFOLD_SOLID_BREP ( 'Corps-Déplacer/Copier1[1]', #33 ) ;
#2 = PRODUCT_RELATED_PRODUCT_CATEGORY ( 'detail', '', ( #34 ) ) ;
#3 = AXIS2_PLACEMENT_3D ( 'NONE', #169, #45, #11 ) ;
#4 = CARTESIAN_POINT ( 'NONE',  ( 0.0000000000000000000, 0.0000000000000000000, 0.0000000000000000000 ) ) ;
#5 = COORDINATED_UNIVERSAL_TIME_OFFSET ( 1, 0, .AHEAD. ) ;
#6 = MANIFOLD_SOLID_BREP ( 'Corps-Déplacer/Copier1[2]', #25 ) ;
#7 = LOCAL_TIME ( 11, 4, 5.000000000000000000, #206 ) ;
#8 = EDGE_LOOP ( 'NONE', ( #111 ) ) ;
#9 = DIRECTION ( 'NONE',  ( 0.0000000000000000000, 1.000000000000000000, 0.0000000000000000000 ) ) ;
#10 = APPROVAL_DATE_TIME ( #87, #58 ) ;
#11 = DIRECTION ( 'NONE',  ( 1.859800404105666284E-30, -1.000000000000000000, 5.326680063889134748E-16 ) ) ;
#12 = CALENDAR_DATE ( 2021, 26, 11 ) ;
#13 = AXIS2_PLACEMENT_3D ( 'NONE', #102, #234, #66 ) ;
#14 = DIRECTION ( 'NONE',  ( -3.491481338843133355E-15, 9.031770143711729009E-17, -1.000000000000000000 ) ) ;
#15 = PERSON_AND_ORGANIZATION_ROLE ( 'design_supplier' ) ;
#16 = CARTESIAN_POINT ( 'NONE',  ( 4.785377827532531920E-30, 7.300676761039355110E-31, 1.370586683163576045E-15 ) ) ;
#17 = PRODUCT_DEFINITION_SHAPE ( 'NONE', 'NONE',  #217 ) ;
#18 = ADVANCED_FACE ( 'NONE', ( #119, #135 ), #221, .T. ) ;
#19 = APPROVAL_STATUS ( 'not_yet_approved' ) ;
#20 = CARTESIAN_POINT ( 'NONE',  ( 0.0000000000000000000, 2.573059892324147668, 0.0000000000000000000 ) ) ;
#21 = AXIS2_PLACEMENT_3D ( 'NONE', #236, #189, #9 ) ;
#22 = ADVANCED_FACE ( 'NONE', ( #85, #29 ), #108, .T. ) ;
#23 = VERTEX_POINT ( 'NONE', #196 ) ;
#24 =( NAMED_UNIT ( * ) SI_UNIT ( $, .STERADIAN. ) SOLID_ANGLE_UNIT ( ) );
#25 = CLOSED_SHELL ( 'NONE', ( #148, #39, #22, #101 ) ) ;
#26 = CARTESIAN_POINT ( 'NONE',  ( 4.785377827532531920E-30, 7.300676761039355110E-31, 1.370586683163576045E-15 ) ) ;
#27 = PERSON_AND_ORGANIZATION_ROLE ( 'creator' ) ;
#28 = AXIS2_PLACEMENT_3D ( 'NONE', #26, #140, #229 ) ;
#29 = FACE_BOUND ( 'NONE', #63, .T. ) ;
#30 = CYLINDRICAL_SURFACE ( 'NONE', #74, 2.803999999999994497 ) ;
#31 = COORDINATED_UNIVERSAL_TIME_OFFSET ( 1, 0, .AHEAD. ) ;
#32 = COORDINATED_UNIVERSAL_TIME_OFFSET ( 1, 0, .AHEAD. ) ;
#33 = CLOSED_SHELL ( 'NONE', ( #223, #190, #110, #18, #47 ) ) ;
#34 = PRODUCT ( '321464', '321464', '', ( #218 ) ) ;
#35 = AXIS2_PLACEMENT_3D ( 'NONE', #43, #117, #114 ) ;
#36 = CIRCLE ( 'NONE', #13, 1.999999999999995337 ) ;
#37 = ORIENTED_EDGE ( 'NONE', *, *, #179, .F. ) ;
#38 = AXIS2_PLACEMENT_3D ( 'NONE', #191, #14, #227 ) ;
#39 = ADVANCED_FACE ( 'NONE', ( #95, #141 ), #30, .T. ) ;
#40 = EDGE_LOOP ( 'NONE', ( #219 ) ) ;
#41 = EDGE_CURVE ( 'NONE', #53, #53, #112, .T. ) ;
#42 = AXIS2_PLACEMENT_3D ( 'NONE', #210, #186, #157 ) ;
#43 = CARTESIAN_POINT ( 'NONE',  ( 1.396592535537258470E-15, 2.130672025555661936E-16, 0.4000000000000014655 ) ) ;
#44 = APPLICATION_PROTOCOL_DEFINITION ( 'international standard', 'config_control_design', 1994, #175 ) ;
#45 = DIRECTION ( 'NONE',  ( 3.491481338843133355E-15, 5.326680063889134748E-16, 1.000000000000000000 ) ) ;
#46 = DIRECTION ( 'NONE',  ( -3.491481338843133355E-15, 9.031770143711729009E-17, -1.000000000000000000 ) ) ;
#47 = ADVANCED_FACE ( 'NONE', ( #103 ), #83, .T. ) ;
#48 = AXIS2_PLACEMENT_3D ( 'NONE', #207, #122, #99 ) ;
#49 = FACE_OUTER_BOUND ( 'NONE', #40, .T. ) ;
#50 = CARTESIAN_POINT ( 'NONE',  ( 4.885231259955590439E-14, -1.263712492114123682E-15, 13.99185842870425134 ) ) ;
#51 = CALENDAR_DATE ( 2021, 26, 11 ) ;
#52 = CC_DESIGN_SECURITY_CLASSIFICATION ( #92, ( #194 ) ) ;
#53 = VERTEX_POINT ( 'NONE', #195 ) ;
#54 =( NAMED_UNIT ( * ) PLANE_ANGLE_UNIT ( ) SI_UNIT ( $, .RADIAN. ) );
#55 = EDGE_CURVE ( 'NONE', #116, #116, #36, .T. ) ;
#56 = LOCAL_TIME ( 11, 4, 5.000000000000000000, #5 ) ;
#57 = DESIGN_CONTEXT ( 'detailed design', #188, 'design' ) ;
#58 = APPROVAL ( #170, 'UNSPECIFIED' ) ;
#59 = EDGE_LOOP ( 'NONE', ( #201 ) ) ;
#60 = VERTEX_POINT ( 'NONE', #197 ) ;
#61 = EDGE_LOOP ( 'NONE', ( #183 ) ) ;
#62 =( GEOMETRIC_REPRESENTATION_CONTEXT ( 3 ) GLOBAL_UNCERTAINTY_ASSIGNED_CONTEXT ( ( #173 ) ) GLOBAL_UNIT_ASSIGNED_CONTEXT ( ( #75, #54, #24 ) ) REPRESENTATION_CONTEXT ( 'NONE', 'WORKASPACE' ) );
#63 = EDGE_LOOP ( 'NONE', ( #80 ) ) ;
#64 = EDGE_CURVE ( 'NONE', #127, #127, #65, .T. ) ;
#65 = CIRCLE ( 'NONE', #106, 2.803999999999991388 ) ;
#66 = DIRECTION ( 'NONE',  ( 0.0000000000000000000, 1.000000000000000000, 0.0000000000000000000 ) ) ;
#67 = DIRECTION ( 'NONE',  ( 1.000000000000000000, 0.0000000000000000000, 0.0000000000000000000 ) ) ;
#68 = DIRECTION ( 'NONE',  ( -3.491481338843133355E-15, -5.326680063889134748E-16, -1.000000000000000000 ) ) ;
#69 = DATE_AND_TIME ( #118, #7 ) ;
#70 = DIRECTION ( 'NONE',  ( -3.491481338843133355E-15, -5.326680063889134748E-16, -1.000000000000000000 ) ) ;
#71 = DIRECTION ( 'NONE',  ( -2.197922903722957717E-30, 1.000000000000000000, -6.186602981372369330E-16 ) ) ;
#72 = EDGE_LOOP ( 'NONE', ( #109 ) ) ;
#73 = PERSON_AND_ORGANIZATION ( #113, #200 ) ;
#74 = AXIS2_PLACEMENT_3D ( 'NONE', #4, #70, #121 ) ;
#75 =( LENGTH_UNIT ( ) NAMED_UNIT ( * ) SI_UNIT ( .MILLI., .METRE. ) );
#76 = CARTESIAN_POINT ( 'NONE',  ( 2.793185071074506684E-13, -7.225416114969383207E-15, 80.00000000000000000 ) ) ;
#77 = DIRECTION ( 'NONE',  ( -3.153425691349006731E-31, -1.000000000000000000, -9.031770143711729009E-17 ) ) ;
#78 = AXIS2_PLACEMENT_3D ( 'NONE', #152, #46, #241 ) ;
#79 = CC_DESIGN_PERSON_AND_ORGANIZATION_ASSIGNMENT ( #156, #15, ( #194 ) ) ;
#80 = ORIENTED_EDGE ( 'NONE', *, *, #243, .F. ) ;
#81 = CC_DESIGN_APPROVAL ( #128, ( #217 ) ) ;
#82 = ORIENTED_EDGE ( 'NONE', *, *, #232, .T. ) ;
#83 = PLANE ( 'NONE',  #216 ) ;
#84 = CARTESIAN_POINT ( 'NONE',  ( 4.399018444922164714E-14, 6.711238462185648050E-15, 12.59928957941884420 ) ) ;
#85 = FACE_OUTER_BOUND ( 'NONE', #199, .T. ) ;
#86 = ORIENTED_EDGE ( 'NONE', *, *, #115, .F. ) ;
#87 = DATE_AND_TIME ( #12, #138 ) ;
#88 = AXIS2_PLACEMENT_3D ( 'NONE', #16, #239, #215 ) ;
#89 = FACE_OUTER_BOUND ( 'NONE', #8, .T. ) ;
#90 = CALENDAR_DATE ( 2021, 26, 11 ) ;
#91 = CARTESIAN_POINT ( 'NONE',  ( 4.399018444922164083E-14, 2.803999999999998050, 12.59928957941884242 ) ) ;
#92 = SECURITY_CLASSIFICATION ( '', '', #228 ) ;
#93 = LOCAL_TIME ( 11, 4, 5.000000000000000000, #31 ) ;
#94 = CARTESIAN_POINT ( 'NONE',  ( 0.0000000000000000000, 0.0000000000000000000, 0.0000000000000000000 ) ) ;
#95 = FACE_OUTER_BOUND ( 'NONE', #61, .T. ) ;
#96 = ADVANCED_BREP_SHAPE_REPRESENTATION ( '321464', ( #1, #6, #139 ), #62 ) ;
#97 = FACE_BOUND ( 'NONE', #164, .T. ) ;
#98 = PERSON_AND_ORGANIZATION ( #113, #200 ) ;
#99 = DIRECTION ( 'NONE',  ( -1.859800404105666284E-30, 1.000000000000000000, -5.326680063889134748E-16 ) ) ;
#100 = PERSON_AND_ORGANIZATION ( #113, #200 ) ;
#101 = ADVANCED_FACE ( 'NONE', ( #168 ), #212, .T. ) ;
#102 = CARTESIAN_POINT ( 'NONE',  ( 2.779219145719134403E-13, -7.189289034394536528E-15, 79.60000000000000853 ) ) ;
#103 = FACE_OUTER_BOUND ( 'NONE', #126, .T. ) ;
#104 = AXIS2_PLACEMENT_3D ( 'NONE', #214, #193, #174 ) ;
#105 = CARTESIAN_POINT ( 'NONE',  ( 2.793185071074506684E-13, 1.599999999999987876, 80.00000000000000000 ) ) ;
#106 = AXIS2_PLACEMENT_3D ( 'NONE', #84, #68, #71 ) ;
#107 = PLANE ( 'NONE',  #172 ) ;
#108 = CONICAL_SURFACE ( 'NONE', #28, 2.573059892324147668, 0.5235987755982978165 ) ;
#109 = ORIENTED_EDGE ( 'NONE', *, *, #41, .T. ) ;
#110 = ADVANCED_FACE ( 'NONE', ( #153, #89 ), #137, .T. ) ;
#111 = ORIENTED_EDGE ( 'NONE', *, *, #41, .F. ) ;
#112 = CIRCLE ( 'NONE', #180, 1.999999999999991784 ) ;
#113 = PERSON ( 'UNSPECIFIED', 'UNSPECIFIED', 'UNSPECIFIED', ('UNSPECIFIED'), ('UNSPECIFIED'), ('UNSPECIFIED') ) ;
#114 = DIRECTION ( 'NONE',  ( -1.854497450016241610E-30, 1.000000000000000000, -5.413277608700811084E-16 ) ) ;
#115 = EDGE_CURVE ( 'NONE', #60, #60, #177, .T. ) ;
#116 = VERTEX_POINT ( 'NONE', #161 ) ;
#117 = DIRECTION ( 'NONE',  ( -3.491481338843133355E-15, -5.326680063889134748E-16, -1.000000000000000000 ) ) ;
#118 = CALENDAR_DATE ( 2021, 26, 11 ) ;
#119 = FACE_BOUND ( 'NONE', #72, .T. ) ;
#120 = APPROVAL_ROLE ( '' ) ;
#121 = DIRECTION ( 'NONE',  ( -1.859800404105666634E-30, 1.000000000000000000, -5.326680063889134748E-16 ) ) ;
#122 = DIRECTION ( 'NONE',  ( -3.491481338843133355E-15, -5.326680063889134748E-16, -1.000000000000000000 ) ) ;
#123 = APPROVAL_ROLE ( '' ) ;
#124 = LOCAL_TIME ( 11, 4, 5.000000000000000000, #131 ) ;
#125 = ORIENTED_EDGE ( 'NONE', *, *, #232, .F. ) ;
#126 = EDGE_LOOP ( 'NONE', ( #147 ) ) ;
#127 = VERTEX_POINT ( 'NONE', #91 ) ;
#128 = APPROVAL ( #19, 'UNSPECIFIED' ) ;
#129 = CALENDAR_DATE ( 2021, 26, 11 ) ;
#130 = ORIENTED_EDGE ( 'NONE', *, *, #55, .T. ) ;
#131 = COORDINATED_UNIVERSAL_TIME_OFFSET ( 1, 0, .AHEAD. ) ;
#132 = EDGE_LOOP ( 'NONE', ( #225 ) ) ;
#133 = DATE_TIME_ROLE ( 'classification_date' ) ;
#134 = DIRECTION ( 'NONE',  ( 0.0000000000000000000, 1.000000000000000000, 0.0000000000000000000 ) ) ;
#135 = FACE_OUTER_BOUND ( 'NONE', #220, .T. ) ;
#136 = APPROVAL_DATE_TIME ( #69, #202 ) ;
#137 = CYLINDRICAL_SURFACE ( 'NONE', #38, 1.999999999999993561 ) ;
#138 = LOCAL_TIME ( 11, 4, 5.000000000000000000, #32 ) ;
#139 = AXIS2_PLACEMENT_3D ( 'NONE', #94, #163, #67 ) ;
#140 = DIRECTION ( 'NONE',  ( 3.491481338843133355E-15, 5.326680063889134748E-16, 1.000000000000000000 ) ) ;
#141 = FACE_OUTER_BOUND ( 'NONE', #181, .T. ) ;
#142 = CC_DESIGN_DATE_AND_TIME_ASSIGNMENT ( #237, #133, ( #92 ) ) ;
#143 = CIRCLE ( 'NONE', #35, 2.803999999999997605 ) ;
#144 = APPROVAL_ROLE ( '' ) ;
#145 = EDGE_LOOP ( 'NONE', ( #130 ) ) ;
#146 = EDGE_LOOP ( 'NONE', ( #125 ) ) ;
#147 = ORIENTED_EDGE ( 'NONE', *, *, #115, .T. ) ;
#148 = ADVANCED_FACE ( 'NONE', ( #49 ), #204, .T. ) ;
#149 = CC_DESIGN_APPROVAL ( #202, ( #92 ) ) ;
#150 = CARTESIAN_POINT ( 'NONE',  ( 4.399018444922164714E-14, 2.803999999999998050, 12.59928957941884420 ) ) ;
#151 = DATE_AND_TIME ( #129, #124 ) ;
#152 = CARTESIAN_POINT ( 'NONE',  ( 2.779219145719134403E-13, -7.189289034394536528E-15, 79.60000000000000853 ) ) ;
#153 = FACE_OUTER_BOUND ( 'NONE', #145, .T. ) ;
#154 = PERSON_AND_ORGANIZATION ( #113, #200 ) ;
#155 = DIRECTION ( 'NONE',  ( -3.491481338843133355E-15, 9.031770143711729009E-17, -1.000000000000000000 ) ) ;
#156 = PERSON_AND_ORGANIZATION ( #113, #200 ) ;
#157 = DIRECTION ( 'NONE',  ( 0.0000000000000000000, 1.000000000000000000, 0.0000000000000000000 ) ) ;
#158 = DATE_TIME_ROLE ( 'creation_date' ) ;
#159 = CC_DESIGN_PERSON_AND_ORGANIZATION_ASSIGNMENT ( #154, #213, ( #217 ) ) ;
#160 = APPROVAL_PERSON_ORGANIZATION ( #73, #128, #144 ) ;
#161 = CARTESIAN_POINT ( 'NONE',  ( 2.779219145719134403E-13, 1.999999999999988010, 79.60000000000000853 ) ) ;
#162 = CC_DESIGN_APPROVAL ( #58, ( #194 ) ) ;
#163 = DIRECTION ( 'NONE',  ( 0.0000000000000000000, 0.0000000000000000000, 1.000000000000000000 ) ) ;
#164 = EDGE_LOOP ( 'NONE', ( #82 ) ) ;
#165 = FACE_OUTER_BOUND ( 'NONE', #59, .T. ) ;
#166 = APPROVAL_STATUS ( 'not_yet_approved' ) ;
#167 = PERSON_AND_ORGANIZATION_ROLE ( 'design_owner' ) ;
#168 = FACE_OUTER_BOUND ( 'NONE', #132, .T. ) ;
#169 = CARTESIAN_POINT ( 'NONE',  ( 4.399018444922164714E-14, 6.711238462185647262E-15, 12.59928957941884420 ) ) ;
#170 = APPROVAL_STATUS ( 'not_yet_approved' ) ;
#171 = DIRECTION ( 'NONE',  ( 3.153425691349006731E-31, 1.000000000000000000, 9.031770143711729009E-17 ) ) ;
#172 = AXIS2_PLACEMENT_3D ( 'NONE', #76, #178, #77 ) ;
#173 = UNCERTAINTY_MEASURE_WITH_UNIT (LENGTH_MEASURE( 1.000000000000000082E-05 ), #75, 'distance_accuracy_value', 'NONE');
#174 = DIRECTION ( 'NONE',  ( 0.0000000000000000000, 1.000000000000000000, 0.0000000000000000000 ) ) ;
#175 = APPLICATION_CONTEXT ( 'configuration controlled 3d designs of mechanical parts and assemblies' ) ;
#176 = VERTEX_POINT ( 'NONE', #20 ) ;
#177 = CIRCLE ( 'NONE', #42, 2.803999999999999382 ) ;
#178 = DIRECTION ( 'NONE',  ( 3.491481338843133355E-15, -9.031770143711729009E-17, 1.000000000000000000 ) ) ;
#179 = EDGE_CURVE ( 'NONE', #23, #23, #143, .T. ) ;
#180 = AXIS2_PLACEMENT_3D ( 'NONE', #50, #231, #134 ) ;
#181 = EDGE_LOOP ( 'NONE', ( #37 ) ) ;
#182 = CC_DESIGN_PERSON_AND_ORGANIZATION_ASSIGNMENT ( #235, #230, ( #92 ) ) ;
#183 = ORIENTED_EDGE ( 'NONE', *, *, #64, .T. ) ;
#184 = CIRCLE ( 'NONE', #88, 2.573059892324147668 ) ;
#185 = PERSON_AND_ORGANIZATION ( #113, #200 ) ;
#186 = DIRECTION ( 'NONE',  ( -3.491481338843133355E-15, 9.031770143711729009E-17, -1.000000000000000000 ) ) ;
#187 = CC_DESIGN_DATE_AND_TIME_ASSIGNMENT ( #211, #158, ( #217 ) ) ;
#188 = APPLICATION_CONTEXT ( 'configuration controlled 3d designs of mechanical parts and assemblies' ) ;
#189 = DIRECTION ( 'NONE',  ( -3.491481338843133355E-15, 9.031770143711729009E-17, -1.000000000000000000 ) ) ;
#190 = ADVANCED_FACE ( 'NONE', ( #97, #165 ), #209, .T. ) ;
#191 = CARTESIAN_POINT ( 'NONE',  ( 0.0000000000000000000, 0.0000000000000000000, 0.0000000000000000000 ) ) ;
#192 = APPROVAL_DATE_TIME ( #151, #128 ) ;
#193 = DIRECTION ( 'NONE',  ( -3.491481338843133355E-15, 9.031770143711729009E-17, -1.000000000000000000 ) ) ;
#194 = PRODUCT_DEFINITION_FORMATION_WITH_SPECIFIED_SOURCE ( 'ANY', '', #34, .NOT_KNOWN. ) ;
#195 = CARTESIAN_POINT ( 'NONE',  ( 4.885231259955590439E-14, 1.999999999999990452, 13.99185842870425134 ) ) ;
#196 = CARTESIAN_POINT ( 'NONE',  ( 1.396592535537253342E-15, 2.803999999999997605, 0.3999999999999999667 ) ) ;
#197 = CARTESIAN_POINT ( 'NONE',  ( 4.399018444922164083E-14, 2.803999999999998050, 12.59928957941884242 ) ) ;
#198 = VERTEX_POINT ( 'NONE', #105 ) ;
#199 = EDGE_LOOP ( 'NONE', ( #222 ) ) ;
#200 = ORGANIZATION ( 'UNSPECIFIED', 'UNSPECIFIED', '' ) ;
#201 = ORIENTED_EDGE ( 'NONE', *, *, #55, .F. ) ;
#202 = APPROVAL ( #166, 'UNSPECIFIED' ) ;
#203 = CIRCLE ( 'NONE', #104, 1.599999999999994982 ) ;
#204 = PLANE ( 'NONE',  #3 ) ;
#205 = CC_DESIGN_PERSON_AND_ORGANIZATION_ASSIGNMENT ( #224, #167, ( #34 ) ) ;
#206 = COORDINATED_UNIVERSAL_TIME_OFFSET ( 1, 0, .AHEAD. ) ;
#207 = CARTESIAN_POINT ( 'NONE',  ( -2.392688913766265960E-30, 2.573059892324147668, -6.852933415817880225E-16 ) ) ;
#208 = SHAPE_DEFINITION_REPRESENTATION ( #17, #96 ) ;
#209 = CONICAL_SURFACE ( 'NONE', #78, 1.999999999999995337, 0.7853981633974516097 ) ;
#210 = CARTESIAN_POINT ( 'NONE',  ( 4.399018444922164083E-14, -1.137938874553734201E-15, 12.59928957941884242 ) ) ;
#211 = DATE_AND_TIME ( #51, #93 ) ;
#212 = PLANE ( 'NONE',  #48 ) ;
#213 = PERSON_AND_ORGANIZATION_ROLE ( 'creator' ) ;
#214 = CARTESIAN_POINT ( 'NONE',  ( 2.793185071074506684E-13, -7.225416114969383207E-15, 80.00000000000000000 ) ) ;
#215 = DIRECTION ( 'NONE',  ( -1.859800404105666284E-30, 1.000000000000000000, -5.326680063889134748E-16 ) ) ;
#216 = AXIS2_PLACEMENT_3D ( 'NONE', #150, #155, #171 ) ;
#217 = PRODUCT_DEFINITION ( 'UNKNOWN', '', #194, #57 ) ;
#218 = MECHANICAL_CONTEXT ( 'NONE', #175, 'mechanical' ) ;
#219 = ORIENTED_EDGE ( 'NONE', *, *, #64, .F. ) ;
#220 = EDGE_LOOP ( 'NONE', ( #86 ) ) ;
#221 = CONICAL_SURFACE ( 'NONE', #21, 2.803999999999999382, 0.5235987755982928205 ) ;
#222 = ORIENTED_EDGE ( 'NONE', *, *, #179, .T. ) ;
#223 = ADVANCED_FACE ( 'NONE', ( #242 ), #107, .T. ) ;
#224 = PERSON_AND_ORGANIZATION ( #113, #200 ) ;
#225 = ORIENTED_EDGE ( 'NONE', *, *, #243, .T. ) ;
#226 = APPROVAL_PERSON_ORGANIZATION ( #98, #202, #120 ) ;
#227 = DIRECTION ( 'NONE',  ( 3.153425691349006731E-31, 1.000000000000000000, 9.031770143711729009E-17 ) ) ;
#228 = SECURITY_CLASSIFICATION_LEVEL ( 'unclassified' ) ;
#229 = DIRECTION ( 'NONE',  ( 1.859800404105666284E-30, -1.000000000000000000, 5.326680063889134748E-16 ) ) ;
#230 = PERSON_AND_ORGANIZATION_ROLE ( 'classification_officer' ) ;
#231 = DIRECTION ( 'NONE',  ( -3.491481338843133355E-15, 9.031770143711729009E-17, -1.000000000000000000 ) ) ;
#232 = EDGE_CURVE ( 'NONE', #198, #198, #203, .T. ) ;
#233 = APPROVAL_PERSON_ORGANIZATION ( #100, #58, #123 ) ;
#234 = DIRECTION ( 'NONE',  ( -3.491481338843133355E-15, 9.031770143711729009E-17, -1.000000000000000000 ) ) ;
#235 = PERSON_AND_ORGANIZATION ( #113, #200 ) ;
#236 = CARTESIAN_POINT ( 'NONE',  ( 4.399018444922164083E-14, -1.137938874553734201E-15, 12.59928957941884242 ) ) ;
#237 = DATE_AND_TIME ( #90, #56 ) ;
#238 = APPLICATION_PROTOCOL_DEFINITION ( 'international standard', 'config_control_design', 1994, #188 ) ;
#239 = DIRECTION ( 'NONE',  ( -3.491481338843133355E-15, -5.326680063889134748E-16, -1.000000000000000000 ) ) ;
#240 = CC_DESIGN_PERSON_AND_ORGANIZATION_ASSIGNMENT ( #185, #27, ( #194 ) ) ;
#241 = DIRECTION ( 'NONE',  ( 0.0000000000000000000, 1.000000000000000000, 0.0000000000000000000 ) ) ;
#242 = FACE_OUTER_BOUND ( 'NONE', #146, .T. ) ;
#243 = EDGE_CURVE ( 'NONE', #176, #176, #184, .T. ) ;
ENDSEC;
END-ISO-10303-21;
