ISO-10303-21;
HEADER;
FILE_DESCRIPTION (( 'STEP AP203' ),
    '1' );
FILE_NAME ('321463.step',
    '2021-11-26T10:04:05',
    ( '' ),
    ( '' ),
    'SwSTEP 2.0',
    'SolidWorks 2019',
    '' );
FILE_SCHEMA (( 'CONFIG_CONTROL_DESIGN' ));
ENDSEC;

DATA;
#1 = APPROVAL_ROLE ( '' ) ;
#2 = PERSON_AND_ORGANIZATION_ROLE ( 'design_supplier' ) ;
#3 = SECURITY_CLASSIFICATION_LEVEL ( 'unclassified' ) ;
#4 = EDGE_LOOP ( 'NONE', ( #198 ) ) ;
#5 = APPROVAL ( #226, 'UNSPECIFIED' ) ;
#6 = ORIENTED_EDGE ( 'NONE', *, *, #68, .F. ) ;
#7 = CC_DESIGN_PERSON_AND_ORGANIZATION_ASSIGNMENT ( #145, #214, ( #92 ) ) ;
#8 = CIRCLE ( 'NONE', #107, 1.599999999999994982 ) ;
#9 = CARTESIAN_POINT ( 'NONE',  ( 0.0000000000000000000, 2.568059892324147775, 0.0000000000000000000 ) ) ;
#10 = EDGE_LOOP ( 'NONE', ( #144 ) ) ;
#11 = PRODUCT_DEFINITION_SHAPE ( 'NONE', 'NONE',  #61 ) ;
#12 = VERTEX_POINT ( 'NONE', #169 ) ;
#13 = DESIGN_CONTEXT ( 'detailed design', #89, 'design' ) ;
#14 = CARTESIAN_POINT ( 'NONE',  ( 4.885231259955590439E-14, -1.263712492114123682E-15, 13.99185842870425134 ) ) ;
#15 = CIRCLE ( 'NONE', #56, 2.798999999999991495 ) ;
#16 = DIRECTION ( 'NONE',  ( -1.857935525074681331E-30, 1.000000000000000000, -5.321338838059748303E-16 ) ) ;
#17 = CYLINDRICAL_SURFACE ( 'NONE', #158, 2.798999999999994603 ) ;
#18 = APPROVAL ( #22, 'UNSPECIFIED' ) ;
#19 = DATE_TIME_ROLE ( 'classification_date' ) ;
#20 = PERSON ( 'UNSPECIFIED', 'UNSPECIFIED', 'UNSPECIFIED', ('UNSPECIFIED'), ('UNSPECIFIED'), ('UNSPECIFIED') ) ;
#21 = CALENDAR_DATE ( 2021, 26, 11 ) ;
#22 = APPROVAL_STATUS ( 'not_yet_approved' ) ;
#23 = DIRECTION ( 'NONE',  ( -3.491481338843133355E-15, 9.031770143711729009E-17, -1.000000000000000000 ) ) ;
#24 = APPROVAL_ROLE ( '' ) ;
#25 = CC_DESIGN_DATE_AND_TIME_ASSIGNMENT ( #210, #19, ( #218 ) ) ;
#26 = PERSON_AND_ORGANIZATION ( #20, #33 ) ;
#27 = FACE_OUTER_BOUND ( 'NONE', #171, .T. ) ;
#28 = CONICAL_SURFACE ( 'NONE', #173, 1.999999999999995337, 0.7853981633974516097 ) ;
#29 = APPROVAL_PERSON_ORGANIZATION ( #159, #5, #24 ) ;
#30 = DIRECTION ( 'NONE',  ( -3.491481338843133355E-15, 9.031770143711729009E-17, -1.000000000000000000 ) ) ;
#31 = CARTESIAN_POINT ( 'NONE',  ( 4.771289704468495219E-30, 7.271884552141248091E-31, 1.366551684348802404E-15 ) ) ;
#32 = AXIS2_PLACEMENT_3D ( 'NONE', #31, #202, #75 ) ;
#33 = ORGANIZATION ( 'UNSPECIFIED', 'UNSPECIFIED', '' ) ;
#34 = CARTESIAN_POINT ( 'NONE',  ( 4.402042156458440956E-14, 2.798999999999998156, 12.60794983345668641 ) ) ;
#35 = DIRECTION ( 'NONE',  ( 3.153425691349006731E-31, 1.000000000000000000, 9.031770143711729009E-17 ) ) ;
#36 = ORIENTED_EDGE ( 'NONE', *, *, #220, .F. ) ;
#37 = DIRECTION ( 'NONE',  ( -3.491481338843133355E-15, 9.031770143711729009E-17, -1.000000000000000000 ) ) ;
#38 = ORIENTED_EDGE ( 'NONE', *, *, #134, .F. ) ;
#39 = CC_DESIGN_APPROVAL ( #5, ( #218 ) ) ;
#40 = DIRECTION ( 'NONE',  ( -2.201849168288379214E-30, 1.000000000000000000, -6.197654433643488228E-16 ) ) ;
#41 =( GEOMETRIC_REPRESENTATION_CONTEXT ( 3 ) GLOBAL_UNCERTAINTY_ASSIGNED_CONTEXT ( ( #117 ) ) GLOBAL_UNIT_ASSIGNED_CONTEXT ( ( #191, #78, #138 ) ) REPRESENTATION_CONTEXT ( 'NONE', 'WORKASPACE' ) );
#42 = ADVANCED_BREP_SHAPE_REPRESENTATION ( '321463', ( #88, #167, #152 ), #41 ) ;
#43 = DIRECTION ( 'NONE',  ( -3.491481338843133355E-15, -5.321338838059748303E-16, -1.000000000000000000 ) ) ;
#44 = DATE_AND_TIME ( #125, #174 ) ;
#45 = PERSON_AND_ORGANIZATION ( #20, #33 ) ;
#46 = AXIS2_PLACEMENT_3D ( 'NONE', #211, #47, #64 ) ;
#47 = DIRECTION ( 'NONE',  ( -3.491481338843133355E-15, -5.321338838059748303E-16, -1.000000000000000000 ) ) ;
#48 = APPROVAL_STATUS ( 'not_yet_approved' ) ;
#49 = CC_DESIGN_PERSON_AND_ORGANIZATION_ASSIGNMENT ( #26, #2, ( #206 ) ) ;
#50 = COORDINATED_UNIVERSAL_TIME_OFFSET ( 1, 0, .AHEAD. ) ;
#51 = DIRECTION ( 'NONE',  ( 0.0000000000000000000, 1.000000000000000000, 0.0000000000000000000 ) ) ;
#52 = FACE_OUTER_BOUND ( 'NONE', #126, .T. ) ;
#53 = DIRECTION ( 'NONE',  ( 0.0000000000000000000, 1.000000000000000000, 0.0000000000000000000 ) ) ;
#54 = APPROVAL ( #48, 'UNSPECIFIED' ) ;
#55 = DIRECTION ( 'NONE',  ( 3.491481338843133355E-15, 5.321338838059748303E-16, 1.000000000000000000 ) ) ;
#56 = AXIS2_PLACEMENT_3D ( 'NONE', #99, #43, #40 ) ;
#57 = EDGE_LOOP ( 'NONE', ( #87 ) ) ;
#58 = CC_DESIGN_DATE_AND_TIME_ASSIGNMENT ( #101, #100, ( #61 ) ) ;
#59 = FACE_OUTER_BOUND ( 'NONE', #196, .T. ) ;
#60 = DIRECTION ( 'NONE',  ( -3.491481338843133355E-15, 9.031770143711729009E-17, -1.000000000000000000 ) ) ;
#61 = PRODUCT_DEFINITION ( 'UNKNOWN', '', #206, #13 ) ;
#62 = SHAPE_DEFINITION_REPRESENTATION ( #11, #42 ) ;
#63 = EDGE_LOOP ( 'NONE', ( #104 ) ) ;
#64 = DIRECTION ( 'NONE',  ( -1.857810235743315889E-30, 1.000000000000000000, -5.229270928386681729E-16 ) ) ;
#65 = DATE_AND_TIME ( #160, #108 ) ;
#66 = DIRECTION ( 'NONE',  ( 0.0000000000000000000, 0.0000000000000000000, 1.000000000000000000 ) ) ;
#67 = CARTESIAN_POINT ( 'NONE',  ( 4.402042156458440956E-14, -1.138721048792293497E-15, 12.60794983345668641 ) ) ;
#68 = EDGE_CURVE ( 'NONE', #168, #168, #8, .T. ) ;
#69 = FACE_OUTER_BOUND ( 'NONE', #224, .T. ) ;
#70 = CC_DESIGN_APPROVAL ( #18, ( #61 ) ) ;
#71 = FACE_BOUND ( 'NONE', #83, .T. ) ;
#72 = CARTESIAN_POINT ( 'NONE',  ( 2.793185071074506684E-13, -7.225416114969383207E-15, 80.00000000000000000 ) ) ;
#73 = CC_DESIGN_SECURITY_CLASSIFICATION ( #218, ( #206 ) ) ;
#74 = EDGE_LOOP ( 'NONE', ( #155 ) ) ;
#75 = DIRECTION ( 'NONE',  ( -1.857935525074681331E-30, 1.000000000000000000, -5.321338838059748303E-16 ) ) ;
#76 = CARTESIAN_POINT ( 'NONE',  ( 2.793185071074506684E-13, 1.599999999999987876, 80.00000000000000000 ) ) ;
#77 = PLANE ( 'NONE',  #231 ) ;
#78 =( NAMED_UNIT ( * ) PLANE_ANGLE_UNIT ( ) SI_UNIT ( $, .RADIAN. ) );
#79 = EDGE_LOOP ( 'NONE', ( #128 ) ) ;
#80 = FACE_OUTER_BOUND ( 'NONE', #10, .T. ) ;
#81 = COORDINATED_UNIVERSAL_TIME_OFFSET ( 1, 0, .AHEAD. ) ;
#82 = COORDINATED_UNIVERSAL_TIME_OFFSET ( 1, 0, .AHEAD. ) ;
#83 = EDGE_LOOP ( 'NONE', ( #38 ) ) ;
#84 = CARTESIAN_POINT ( 'NONE',  ( 4.402042156458440956E-14, 6.709117311708200329E-15, 12.60794983345668641 ) ) ;
#85 = PERSON_AND_ORGANIZATION ( #20, #33 ) ;
#86 = CIRCLE ( 'NONE', #236, 1.999999999999991784 ) ;
#87 = ORIENTED_EDGE ( 'NONE', *, *, #122, .F. ) ;
#88 = MANIFOLD_SOLID_BREP ( 'Corps-Déplacer/Copier1[1]', #129 ) ;
#89 = APPLICATION_CONTEXT ( 'configuration controlled 3d designs of mechanical parts and assemblies' ) ;
#90 = DIRECTION ( 'NONE',  ( -3.491481338843133355E-15, -5.321338838059748303E-16, -1.000000000000000000 ) ) ;
#91 = ORIENTED_EDGE ( 'NONE', *, *, #96, .T. ) ;
#92 = PRODUCT ( '321463', '321463', '', ( #127 ) ) ;
#93 = DIRECTION ( 'NONE',  ( 0.0000000000000000000, 1.000000000000000000, 0.0000000000000000000 ) ) ;
#94 = CYLINDRICAL_SURFACE ( 'NONE', #140, 1.999999999999993561 ) ;
#95 = EDGE_LOOP ( 'NONE', ( #6 ) ) ;
#96 = EDGE_CURVE ( 'NONE', #172, #172, #150, .T. ) ;
#97 = CONICAL_SURFACE ( 'NONE', #179, 2.568059892324147775, 0.5235987755982978165 ) ;
#98 = EDGE_LOOP ( 'NONE', ( #175 ) ) ;
#99 = CARTESIAN_POINT ( 'NONE',  ( 4.402042156458441587E-14, 6.709117311708201117E-15, 12.60794983345668818 ) ) ;
#100 = DATE_TIME_ROLE ( 'creation_date' ) ;
#101 = DATE_AND_TIME ( #21, #201 ) ;
#102 = CC_DESIGN_PERSON_AND_ORGANIZATION_ASSIGNMENT ( #45, #209, ( #61 ) ) ;
#103 = DIRECTION ( 'NONE',  ( 0.0000000000000000000, 1.000000000000000000, 0.0000000000000000000 ) ) ;
#104 = ORIENTED_EDGE ( 'NONE', *, *, #134, .T. ) ;
#105 = ADVANCED_FACE ( 'NONE', ( #27 ), #109, .T. ) ;
#106 = COORDINATED_UNIVERSAL_TIME_OFFSET ( 1, 0, .AHEAD. ) ;
#107 = AXIS2_PLACEMENT_3D ( 'NONE', #161, #213, #51 ) ;
#108 = LOCAL_TIME ( 11, 4, 5.000000000000000000, #82 ) ;
#109 = PLANE ( 'NONE',  #185 ) ;
#110 = DIRECTION ( 'NONE',  ( -3.491481338843133355E-15, 9.031770143711729009E-17, -1.000000000000000000 ) ) ;
#111 = FACE_OUTER_BOUND ( 'NONE', #95, .T. ) ;
#112 = CARTESIAN_POINT ( 'NONE',  ( 4.771289704468495219E-30, 7.271884552141248091E-31, 1.366551684348802404E-15 ) ) ;
#113 = AXIS2_PLACEMENT_3D ( 'NONE', #164, #23, #103 ) ;
#114 = ADVANCED_FACE ( 'NONE', ( #183, #124 ), #235, .T. ) ;
#115 = CC_DESIGN_PERSON_AND_ORGANIZATION_ASSIGNMENT ( #192, #142, ( #218 ) ) ;
#116 = VERTEX_POINT ( 'NONE', #243 ) ;
#117 = UNCERTAINTY_MEASURE_WITH_UNIT (LENGTH_MEASURE( 1.000000000000000082E-05 ), #191, 'distance_accuracy_value', 'NONE');
#118 = EDGE_LOOP ( 'NONE', ( #228 ) ) ;
#119 = CLOSED_SHELL ( 'NONE', ( #105, #176, #149, #190 ) ) ;
#120 = CARTESIAN_POINT ( 'NONE',  ( 1.396592535537253145E-15, 2.798999999999997712, 0.3999999999999999667 ) ) ;
#121 = PERSON_AND_ORGANIZATION ( #20, #33 ) ;
#122 = EDGE_CURVE ( 'NONE', #241, #241, #147, .T. ) ;
#123 = DATE_AND_TIME ( #197, #166 ) ;
#124 = FACE_OUTER_BOUND ( 'NONE', #57, .T. ) ;
#125 = CALENDAR_DATE ( 2021, 26, 11 ) ;
#126 = EDGE_LOOP ( 'NONE', ( #199 ) ) ;
#127 = MECHANICAL_CONTEXT ( 'NONE', #170, 'mechanical' ) ;
#128 = ORIENTED_EDGE ( 'NONE', *, *, #122, .T. ) ;
#129 = CLOSED_SHELL ( 'NONE', ( #157, #131, #237, #114, #200 ) ) ;
#130 = CARTESIAN_POINT ( 'NONE',  ( 2.779219145719134403E-13, -7.189289034394536528E-15, 79.60000000000000853 ) ) ;
#131 = ADVANCED_FACE ( 'NONE', ( #215, #52 ), #28, .T. ) ;
#132 = DIRECTION ( 'NONE',  ( 0.0000000000000000000, 1.000000000000000000, 0.0000000000000000000 ) ) ;
#133 = CIRCLE ( 'NONE', #32, 2.568059892324147775 ) ;
#134 = EDGE_CURVE ( 'NONE', #153, #153, #133, .T. ) ;
#135 = DIRECTION ( 'NONE',  ( -3.491481338843133355E-15, 9.031770143711729009E-17, -1.000000000000000000 ) ) ;
#136 = PLANE ( 'NONE',  #216 ) ;
#137 = CC_DESIGN_APPROVAL ( #54, ( #206 ) ) ;
#138 =( NAMED_UNIT ( * ) SI_UNIT ( $, .STERADIAN. ) SOLID_ANGLE_UNIT ( ) );
#139 = VERTEX_POINT ( 'NONE', #221 ) ;
#140 = AXIS2_PLACEMENT_3D ( 'NONE', #186, #208, #203 ) ;
#141 = DIRECTION ( 'NONE',  ( -3.491481338843133355E-15, -5.321338838059748303E-16, -1.000000000000000000 ) ) ;
#142 = PERSON_AND_ORGANIZATION_ROLE ( 'classification_officer' ) ;
#143 = COORDINATED_UNIVERSAL_TIME_OFFSET ( 1, 0, .AHEAD. ) ;
#144 = ORIENTED_EDGE ( 'NONE', *, *, #151, .T. ) ;
#145 = PERSON_AND_ORGANIZATION ( #20, #33 ) ;
#146 = DIRECTION ( 'NONE',  ( 0.0000000000000000000, 1.000000000000000000, 0.0000000000000000000 ) ) ;
#147 = CIRCLE ( 'NONE', #240, 2.798999999999999488 ) ;
#148 = APPROVAL_PERSON_ORGANIZATION ( #85, #18, #1 ) ;
#149 = ADVANCED_FACE ( 'NONE', ( #69, #71 ), #97, .T. ) ;
#150 = CIRCLE ( 'NONE', #46, 2.798999999999997712 ) ;
#151 = EDGE_CURVE ( 'NONE', #139, #139, #163, .T. ) ;
#152 = AXIS2_PLACEMENT_3D ( 'NONE', #178, #66, #229 ) ;
#153 = VERTEX_POINT ( 'NONE', #9 ) ;
#154 = DIRECTION ( 'NONE',  ( -3.153425691349006731E-31, -1.000000000000000000, -9.031770143711729009E-17 ) ) ;
#155 = ORIENTED_EDGE ( 'NONE', *, *, #233, .T. ) ;
#156 = APPLICATION_PROTOCOL_DEFINITION ( 'international standard', 'config_control_design', 1994, #170 ) ;
#157 = ADVANCED_FACE ( 'NONE', ( #111 ), #234, .T. ) ;
#158 = AXIS2_PLACEMENT_3D ( 'NONE', #238, #141, #223 ) ;
#159 = PERSON_AND_ORGANIZATION ( #20, #33 ) ;
#160 = CALENDAR_DATE ( 2021, 26, 11 ) ;
#161 = CARTESIAN_POINT ( 'NONE',  ( 2.793185071074506684E-13, -7.225416114969383207E-15, 80.00000000000000000 ) ) ;
#162 = DIRECTION ( 'NONE',  ( 1.857935525074681331E-30, -1.000000000000000000, 5.321338838059748303E-16 ) ) ;
#163 = CIRCLE ( 'NONE', #189, 1.999999999999995337 ) ;
#164 = CARTESIAN_POINT ( 'NONE',  ( 4.402042156458440956E-14, -1.138721048792293497E-15, 12.60794983345668641 ) ) ;
#165 = AXIS2_PLACEMENT_3D ( 'NONE', #72, #204, #154 ) ;
#166 = LOCAL_TIME ( 11, 4, 5.000000000000000000, #50 ) ;
#167 = MANIFOLD_SOLID_BREP ( 'Corps-Déplacer/Copier1[2]', #119 ) ;
#168 = VERTEX_POINT ( 'NONE', #76 ) ;
#169 = CARTESIAN_POINT ( 'NONE',  ( 4.885231259955590439E-14, 1.999999999999990452, 13.99185842870425134 ) ) ;
#170 = APPLICATION_CONTEXT ( 'configuration controlled 3d designs of mechanical parts and assemblies' ) ;
#171 = EDGE_LOOP ( 'NONE', ( #36 ) ) ;
#172 = VERTEX_POINT ( 'NONE', #120 ) ;
#173 = AXIS2_PLACEMENT_3D ( 'NONE', #130, #30, #132 ) ;
#174 = LOCAL_TIME ( 11, 4, 5.000000000000000000, #81 ) ;
#175 = ORIENTED_EDGE ( 'NONE', *, *, #220, .T. ) ;
#176 = ADVANCED_FACE ( 'NONE', ( #225, #242 ), #17, .T. ) ;
#177 = FACE_OUTER_BOUND ( 'NONE', #79, .T. ) ;
#178 = CARTESIAN_POINT ( 'NONE',  ( 0.0000000000000000000, 0.0000000000000000000, 0.0000000000000000000 ) ) ;
#179 = AXIS2_PLACEMENT_3D ( 'NONE', #112, #55, #217 ) ;
#180 = PERSON_AND_ORGANIZATION_ROLE ( 'creator' ) ;
#181 = APPROVAL_DATE_TIME ( #44, #54 ) ;
#182 = ORIENTED_EDGE ( 'NONE', *, *, #233, .F. ) ;
#183 = FACE_BOUND ( 'NONE', #74, .T. ) ;
#184 = APPROVAL_PERSON_ORGANIZATION ( #232, #54, #193 ) ;
#185 = AXIS2_PLACEMENT_3D ( 'NONE', #84, #230, #162 ) ;
#186 = CARTESIAN_POINT ( 'NONE',  ( 0.0000000000000000000, 0.0000000000000000000, 0.0000000000000000000 ) ) ;
#187 = FACE_OUTER_BOUND ( 'NONE', #63, .T. ) ;
#188 = CARTESIAN_POINT ( 'NONE',  ( 4.402042156458440956E-14, 2.798999999999998156, 12.60794983345668641 ) ) ;
#189 = AXIS2_PLACEMENT_3D ( 'NONE', #219, #135, #53 ) ;
#190 = ADVANCED_FACE ( 'NONE', ( #187 ), #77, .T. ) ;
#191 =( LENGTH_UNIT ( ) NAMED_UNIT ( * ) SI_UNIT ( .MILLI., .METRE. ) );
#192 = PERSON_AND_ORGANIZATION ( #20, #33 ) ;
#193 = APPROVAL_ROLE ( '' ) ;
#194 = CALENDAR_DATE ( 2021, 26, 11 ) ;
#195 = APPROVAL_DATE_TIME ( #123, #18 ) ;
#196 = EDGE_LOOP ( 'NONE', ( #182 ) ) ;
#197 = CALENDAR_DATE ( 2021, 26, 11 ) ;
#198 = ORIENTED_EDGE ( 'NONE', *, *, #96, .F. ) ;
#199 = ORIENTED_EDGE ( 'NONE', *, *, #151, .F. ) ;
#200 = ADVANCED_FACE ( 'NONE', ( #177 ), #136, .T. ) ;
#201 = LOCAL_TIME ( 11, 4, 5.000000000000000000, #143 ) ;
#202 = DIRECTION ( 'NONE',  ( -3.491481338843133355E-15, -5.321338838059748303E-16, -1.000000000000000000 ) ) ;
#203 = DIRECTION ( 'NONE',  ( 3.153425691349006731E-31, 1.000000000000000000, 9.031770143711729009E-17 ) ) ;
#204 = DIRECTION ( 'NONE',  ( 3.491481338843133355E-15, -9.031770143711729009E-17, 1.000000000000000000 ) ) ;
#205 = CARTESIAN_POINT ( 'NONE',  ( -2.385644852234247609E-30, 2.568059892324147775, -6.832758421744012021E-16 ) ) ;
#206 = PRODUCT_DEFINITION_FORMATION_WITH_SPECIFIED_SOURCE ( 'ANY', '', #92, .NOT_KNOWN. ) ;
#207 = PRODUCT_RELATED_PRODUCT_CATEGORY ( 'detail', '', ( #92 ) ) ;
#208 = DIRECTION ( 'NONE',  ( -3.491481338843133355E-15, 9.031770143711729009E-17, -1.000000000000000000 ) ) ;
#209 = PERSON_AND_ORGANIZATION_ROLE ( 'creator' ) ;
#210 = DATE_AND_TIME ( #194, #222 ) ;
#211 = CARTESIAN_POINT ( 'NONE',  ( 1.396592535537258272E-15, 2.128535535223907012E-16, 0.4000000000000014100 ) ) ;
#212 = APPLICATION_PROTOCOL_DEFINITION ( 'international standard', 'config_control_design', 1994, #89 ) ;
#213 = DIRECTION ( 'NONE',  ( -3.491481338843133355E-15, 9.031770143711729009E-17, -1.000000000000000000 ) ) ;
#214 = PERSON_AND_ORGANIZATION_ROLE ( 'design_owner' ) ;
#215 = FACE_BOUND ( 'NONE', #118, .T. ) ;
#216 = AXIS2_PLACEMENT_3D ( 'NONE', #188, #60, #35 ) ;
#217 = DIRECTION ( 'NONE',  ( 1.857935525074681331E-30, -1.000000000000000000, 5.321338838059748303E-16 ) ) ;
#218 = SECURITY_CLASSIFICATION ( '', '', #3 ) ;
#219 = CARTESIAN_POINT ( 'NONE',  ( 2.779219145719134403E-13, -7.189289034394536528E-15, 79.60000000000000853 ) ) ;
#220 = EDGE_CURVE ( 'NONE', #116, #116, #15, .T. ) ;
#221 = CARTESIAN_POINT ( 'NONE',  ( 2.779219145719134403E-13, 1.999999999999988010, 79.60000000000000853 ) ) ;
#222 = LOCAL_TIME ( 11, 4, 5.000000000000000000, #106 ) ;
#223 = DIRECTION ( 'NONE',  ( -1.857935525074681331E-30, 1.000000000000000000, -5.321338838059748303E-16 ) ) ;
#224 = EDGE_LOOP ( 'NONE', ( #91 ) ) ;
#225 = FACE_OUTER_BOUND ( 'NONE', #98, .T. ) ;
#226 = APPROVAL_STATUS ( 'not_yet_approved' ) ;
#227 = APPROVAL_DATE_TIME ( #65, #5 ) ;
#228 = ORIENTED_EDGE ( 'NONE', *, *, #68, .T. ) ;
#229 = DIRECTION ( 'NONE',  ( 1.000000000000000000, 0.0000000000000000000, 0.0000000000000000000 ) ) ;
#230 = DIRECTION ( 'NONE',  ( 3.491481338843133355E-15, 5.321338838059748303E-16, 1.000000000000000000 ) ) ;
#231 = AXIS2_PLACEMENT_3D ( 'NONE', #205, #90, #16 ) ;
#232 = PERSON_AND_ORGANIZATION ( #20, #33 ) ;
#233 = EDGE_CURVE ( 'NONE', #12, #12, #86, .T. ) ;
#234 = PLANE ( 'NONE',  #165 ) ;
#235 = CONICAL_SURFACE ( 'NONE', #113, 2.798999999999999488, 0.5235987755982925984 ) ;
#236 = AXIS2_PLACEMENT_3D ( 'NONE', #14, #37, #93 ) ;
#237 = ADVANCED_FACE ( 'NONE', ( #80, #59 ), #94, .T. ) ;
#238 = CARTESIAN_POINT ( 'NONE',  ( 0.0000000000000000000, 0.0000000000000000000, 0.0000000000000000000 ) ) ;
#239 = CC_DESIGN_PERSON_AND_ORGANIZATION_ASSIGNMENT ( #121, #180, ( #206 ) ) ;
#240 = AXIS2_PLACEMENT_3D ( 'NONE', #67, #110, #146 ) ;
#241 = VERTEX_POINT ( 'NONE', #34 ) ;
#242 = FACE_OUTER_BOUND ( 'NONE', #4, .T. ) ;
#243 = CARTESIAN_POINT ( 'NONE',  ( 4.402042156458440956E-14, 2.798999999999998156, 12.60794983345668641 ) ) ;
ENDSEC;
END-ISO-10303-21;
