ISO-10303-21;
HEADER;
FILE_DESCRIPTION (( 'STEP AP203' ),
    '1' );
FILE_NAME ('321462.step',
    '2021-11-26T10:04:04',
    ( '' ),
    ( '' ),
    'SwSTEP 2.0',
    'SolidWorks 2019',
    '' );
FILE_SCHEMA (( 'CONFIG_CONTROL_DESIGN' ));
ENDSEC;

DATA;
#1 = EDGE_LOOP ( 'NONE', ( #86 ) ) ;
#2 = DATE_AND_TIME ( #171, #162 ) ;
#3 = APPROVAL_DATE_TIME ( #193, #34 ) ;
#4 = CONICAL_SURFACE ( 'NONE', #116, 1.999999999999995337, 0.7853981633974516097 ) ;
#5 = FACE_OUTER_BOUND ( 'NONE', #212, .T. ) ;
#6 = ADVANCED_FACE ( 'NONE', ( #164, #160 ), #61, .T. ) ;
#7 = PERSON_AND_ORGANIZATION_ROLE ( 'design_supplier' ) ;
#8 = PRODUCT_DEFINITION_SHAPE ( 'NONE', 'NONE',  #146 ) ;
#9 = DIRECTION ( 'NONE',  ( 3.153425691349006731E-31, 1.000000000000000000, 9.031770143711729009E-17 ) ) ;
#10 = DIRECTION ( 'NONE',  ( 0.0000000000000000000, 1.000000000000000000, 0.0000000000000000000 ) ) ;
#11 = AXIS2_PLACEMENT_3D ( 'NONE', #88, #109, #52 ) ;
#12 = CARTESIAN_POINT ( 'NONE',  ( 2.779219145719134403E-13, -7.189289034394536528E-15, 79.60000000000000853 ) ) ;
#13 = ADVANCED_FACE ( 'NONE', ( #125, #63 ), #188, .T. ) ;
#14 = ORIENTED_EDGE ( 'NONE', *, *, #191, .F. ) ;
#15 = CIRCLE ( 'NONE', #172, 2.793999999999997819 ) ;
#16 = VERTEX_POINT ( 'NONE', #72 ) ;
#17 =( NAMED_UNIT ( * ) SI_UNIT ( $, .STERADIAN. ) SOLID_ANGLE_UNIT ( ) );
#18 = CARTESIAN_POINT ( 'NONE',  ( 1.396592535537258272E-15, 2.126401977938175097E-16, 0.4000000000000014100 ) ) ;
#19 = SECURITY_CLASSIFICATION ( '', '', #196 ) ;
#20 = ADVANCED_FACE ( 'NONE', ( #145 ), #48, .T. ) ;
#21 = CC_DESIGN_PERSON_AND_ORGANIZATION_ASSIGNMENT ( #78, #157, ( #19 ) ) ;
#22 = COORDINATED_UNIVERSAL_TIME_OFFSET ( 1, 0, .AHEAD. ) ;
#23 = EDGE_LOOP ( 'NONE', ( #200 ) ) ;
#24 = CARTESIAN_POINT ( 'NONE',  ( 4.405065867994717829E-14, 6.706996161230751029E-15, 12.61661008749452861 ) ) ;
#25 = EDGE_LOOP ( 'NONE', ( #14 ) ) ;
#26 = COORDINATED_UNIVERSAL_TIME_OFFSET ( 1, 0, .AHEAD. ) ;
#27 = CARTESIAN_POINT ( 'NONE',  ( 0.0000000000000000000, 0.0000000000000000000, 0.0000000000000000000 ) ) ;
#28 = DIRECTION ( 'NONE',  ( 3.491481338843133355E-15, -9.031770143711729009E-17, 1.000000000000000000 ) ) ;
#29 = SHAPE_DEFINITION_REPRESENTATION ( #8, #56 ) ;
#30 = ORGANIZATION ( 'UNSPECIFIED', 'UNSPECIFIED', '' ) ;
#31 = DIRECTION ( 'NONE',  ( -3.491481338843133355E-15, -5.316004944845418267E-16, -1.000000000000000000 ) ) ;
#32 = DIRECTION ( 'NONE',  ( 0.0000000000000000000, 1.000000000000000000, 0.0000000000000000000 ) ) ;
#33 = DIRECTION ( 'NONE',  ( -3.491481338843133355E-15, -5.316004944845418267E-16, -1.000000000000000000 ) ) ;
#34 = APPROVAL ( #209, 'UNSPECIFIED' ) ;
#35 = VERTEX_POINT ( 'NONE', #240 ) ;
#36 = APPROVAL_PERSON_ORGANIZATION ( #42, #34, #159 ) ;
#37 = CARTESIAN_POINT ( 'NONE',  ( 2.779219145719134403E-13, 1.999999999999988010, 79.60000000000000853 ) ) ;
#38 = FACE_OUTER_BOUND ( 'NONE', #49, .T. ) ;
#39 = EDGE_CURVE ( 'NONE', #134, #134, #210, .T. ) ;
#40 = COORDINATED_UNIVERSAL_TIME_OFFSET ( 1, 0, .AHEAD. ) ;
#41 = AXIS2_PLACEMENT_3D ( 'NONE', #218, #177, #139 ) ;
#42 = PERSON_AND_ORGANIZATION ( #231, #30 ) ;
#43 = PRODUCT ( '321462', '321462', '', ( #71 ) ) ;
#44 = FACE_OUTER_BOUND ( 'NONE', #60, .T. ) ;
#45 = CALENDAR_DATE ( 2021, 26, 11 ) ;
#46 = DIRECTION ( 'NONE',  ( 1.856073206212559971E-30, -1.000000000000000000, 5.316004944845418267E-16 ) ) ;
#47 = APPROVAL_STATUS ( 'not_yet_approved' ) ;
#48 = PLANE ( 'NONE',  #158 ) ;
#49 = EDGE_LOOP ( 'NONE', ( #115 ) ) ;
#50 = ORIENTED_EDGE ( 'NONE', *, *, #191, .T. ) ;
#51 = CARTESIAN_POINT ( 'NONE',  ( 1.396592535537253145E-15, 2.793999999999997819, 0.3999999999999999667 ) ) ;
#52 = DIRECTION ( 'NONE',  ( 1.000000000000000000, 0.0000000000000000000, 0.0000000000000000000 ) ) ;
#53 = DIRECTION ( 'NONE',  ( 0.0000000000000000000, 1.000000000000000000, 0.0000000000000000000 ) ) ;
#54 = CC_DESIGN_SECURITY_CLASSIFICATION ( #19, ( #236 ) ) ;
#55 = UNCERTAINTY_MEASURE_WITH_UNIT (LENGTH_MEASURE( 1.000000000000000082E-05 ), #129, 'distance_accuracy_value', 'NONE');
#56 = ADVANCED_BREP_SHAPE_REPRESENTATION ( '321462', ( #239, #81, #11 ), #194 ) ;
#57 = EDGE_LOOP ( 'NONE', ( #136 ) ) ;
#58 = ORIENTED_EDGE ( 'NONE', *, *, #110, .T. ) ;
#59 = PERSON_AND_ORGANIZATION ( #231, #30 ) ;
#60 = EDGE_LOOP ( 'NONE', ( #97 ) ) ;
#61 = CONICAL_SURFACE ( 'NONE', #183, 2.563059892324147881, 0.5235987755982978165 ) ;
#62 = DATE_TIME_ROLE ( 'classification_date' ) ;
#63 = FACE_OUTER_BOUND ( 'NONE', #25, .T. ) ;
#64 = CALENDAR_DATE ( 2021, 26, 11 ) ;
#65 = DIRECTION ( 'NONE',  ( -3.491481338843133355E-15, 9.031770143711729009E-17, -1.000000000000000000 ) ) ;
#66 = CIRCLE ( 'NONE', #137, 1.599999999999994982 ) ;
#67 = DIRECTION ( 'NONE',  ( 3.491481338843133355E-15, 5.316004944845418267E-16, 1.000000000000000000 ) ) ;
#68 = DIRECTION ( 'NONE',  ( 0.0000000000000000000, 1.000000000000000000, 0.0000000000000000000 ) ) ;
#69 = DIRECTION ( 'NONE',  ( -1.856073206212560321E-30, 1.000000000000000000, -5.316004944845419253E-16 ) ) ;
#70 = APPROVAL_PERSON_ORGANIZATION ( #190, #120, #123 ) ;
#71 = MECHANICAL_CONTEXT ( 'NONE', #142, 'mechanical' ) ;
#72 = CARTESIAN_POINT ( 'NONE',  ( 4.405065867994718461E-14, 2.793999999999998263, 12.61661008749453039 ) ) ;
#73 = PERSON_AND_ORGANIZATION_ROLE ( 'creator' ) ;
#74 = CC_DESIGN_DATE_AND_TIME_ASSIGNMENT ( #227, #117, ( #146 ) ) ;
#75 = ORIENTED_EDGE ( 'NONE', *, *, #237, .F. ) ;
#76 = EDGE_LOOP ( 'NONE', ( #155 ) ) ;
#77 = PERSON_AND_ORGANIZATION ( #231, #30 ) ;
#78 = PERSON_AND_ORGANIZATION ( #231, #30 ) ;
#79 = EDGE_CURVE ( 'NONE', #35, #35, #66, .T. ) ;
#80 = APPROVAL_STATUS ( 'not_yet_approved' ) ;
#81 = MANIFOLD_SOLID_BREP ( 'Corps-Déplacer/Copier1[2]', #168 ) ;
#82 = PLANE ( 'NONE',  #150 ) ;
#83 = EDGE_CURVE ( 'NONE', #221, #221, #127, .T. ) ;
#84 = DIRECTION ( 'NONE',  ( 3.491481338843133355E-15, 5.316004944845418267E-16, 1.000000000000000000 ) ) ;
#85 = DIRECTION ( 'NONE',  ( -3.491481338843133355E-15, 9.031770143711729009E-17, -1.000000000000000000 ) ) ;
#86 = ORIENTED_EDGE ( 'NONE', *, *, #39, .T. ) ;
#87 = DIRECTION ( 'NONE',  ( -3.491481338843133355E-15, 9.031770143711729009E-17, -1.000000000000000000 ) ) ;
#88 = CARTESIAN_POINT ( 'NONE',  ( 0.0000000000000000000, 0.0000000000000000000, 0.0000000000000000000 ) ) ;
#89 = VERTEX_POINT ( 'NONE', #238 ) ;
#90 = ADVANCED_FACE ( 'NONE', ( #124, #121 ), #197, .T. ) ;
#91 = DIRECTION ( 'NONE',  ( -1.861134878255383399E-30, 1.000000000000000000, -5.238628965123236321E-16 ) ) ;
#92 = CC_DESIGN_APPROVAL ( #222, ( #19 ) ) ;
#93 = APPLICATION_PROTOCOL_DEFINITION ( 'international standard', 'config_control_design', 1994, #175 ) ;
#94 = CC_DESIGN_APPROVAL ( #34, ( #236 ) ) ;
#95 = CALENDAR_DATE ( 2021, 26, 11 ) ;
#96 = CC_DESIGN_PERSON_AND_ORGANIZATION_ASSIGNMENT ( #98, #138, ( #146 ) ) ;
#97 = ORIENTED_EDGE ( 'NONE', *, *, #110, .F. ) ;
#98 = PERSON_AND_ORGANIZATION ( #231, #30 ) ;
#99 = EDGE_LOOP ( 'NONE', ( #50 ) ) ;
#100 = LOCAL_TIME ( 11, 4, 4.000000000000000000, #213 ) ;
#101 = DATE_AND_TIME ( #64, #169 ) ;
#102 = DIRECTION ( 'NONE',  ( -3.153425691349006731E-31, -1.000000000000000000, -9.031770143711729009E-17 ) ) ;
#103 = APPROVAL_ROLE ( '' ) ;
#104 = FACE_OUTER_BOUND ( 'NONE', #23, .T. ) ;
#105 = AXIS2_PLACEMENT_3D ( 'NONE', #141, #216, #69 ) ;
#106 = FACE_OUTER_BOUND ( 'NONE', #1, .T. ) ;
#107 = CARTESIAN_POINT ( 'NONE',  ( 4.405065867994718461E-14, 2.793999999999998263, 12.61661008749453039 ) ) ;
#108 = AXIS2_PLACEMENT_3D ( 'NONE', #12, #233, #68 ) ;
#109 = DIRECTION ( 'NONE',  ( 0.0000000000000000000, 0.0000000000000000000, 1.000000000000000000 ) ) ;
#110 = EDGE_CURVE ( 'NONE', #147, #147, #184, .T. ) ;
#111 = CARTESIAN_POINT ( 'NONE',  ( 4.885231259955590439E-14, -1.263712492114123682E-15, 13.99185842870425134 ) ) ;
#112 = PERSON_AND_ORGANIZATION ( #231, #30 ) ;
#113 = CIRCLE ( 'NONE', #131, 1.999999999999991784 ) ;
#114 = APPROVAL_PERSON_ORGANIZATION ( #112, #222, #103 ) ;
#115 = ORIENTED_EDGE ( 'NONE', *, *, #39, .F. ) ;
#116 = AXIS2_PLACEMENT_3D ( 'NONE', #132, #203, #32 ) ;
#117 = DATE_TIME_ROLE ( 'creation_date' ) ;
#118 = PERSON_AND_ORGANIZATION ( #231, #30 ) ;
#119 = CYLINDRICAL_SURFACE ( 'NONE', #176, 1.999999999999993561 ) ;
#120 = APPROVAL ( #80, 'UNSPECIFIED' ) ;
#121 = FACE_OUTER_BOUND ( 'NONE', #174, .T. ) ;
#122 = AXIS2_PLACEMENT_3D ( 'NONE', #206, #128, #202 ) ;
#123 = APPROVAL_ROLE ( '' ) ;
#124 = FACE_OUTER_BOUND ( 'NONE', #230, .T. ) ;
#125 = FACE_BOUND ( 'NONE', #192, .T. ) ;
#126 = CARTESIAN_POINT ( 'NONE',  ( 4.405065867994718461E-14, -1.139503223030853385E-15, 12.61661008749453039 ) ) ;
#127 = CIRCLE ( 'NONE', #105, 2.563059892324147881 ) ;
#128 = DIRECTION ( 'NONE',  ( -3.491481338843133355E-15, 9.031770143711729009E-17, -1.000000000000000000 ) ) ;
#129 =( LENGTH_UNIT ( ) NAMED_UNIT ( * ) SI_UNIT ( .MILLI., .METRE. ) );
#130 = ADVANCED_FACE ( 'NONE', ( #106, #104 ), #119, .T. ) ;
#131 = AXIS2_PLACEMENT_3D ( 'NONE', #111, #187, #53 ) ;
#132 = CARTESIAN_POINT ( 'NONE',  ( 2.779219145719134403E-13, -7.189289034394536528E-15, 79.60000000000000853 ) ) ;
#133 = DESIGN_CONTEXT ( 'detailed design', #175, 'design' ) ;
#134 = VERTEX_POINT ( 'NONE', #37 ) ;
#135 = LOCAL_TIME ( 11, 4, 4.000000000000000000, #40 ) ;
#136 = ORIENTED_EDGE ( 'NONE', *, *, #79, .F. ) ;
#137 = AXIS2_PLACEMENT_3D ( 'NONE', #182, #65, #10 ) ;
#138 = PERSON_AND_ORGANIZATION_ROLE ( 'creator' ) ;
#139 = DIRECTION ( 'NONE',  ( -2.205789485339718537E-30, 1.000000000000000000, -6.208745440146071594E-16 ) ) ;
#140 = CALENDAR_DATE ( 2021, 26, 11 ) ;
#141 = CARTESIAN_POINT ( 'NONE',  ( 4.757226792060900204E-30, 7.243183822579515028E-31, 1.362523906153013681E-15 ) ) ;
#142 = APPLICATION_CONTEXT ( 'configuration controlled 3d designs of mechanical parts and assemblies' ) ;
#143 = CC_DESIGN_APPROVAL ( #120, ( #146 ) ) ;
#144 = DIRECTION ( 'NONE',  ( -1.856073206212559971E-30, 1.000000000000000000, -5.316004944845418267E-16 ) ) ;
#145 = FACE_OUTER_BOUND ( 'NONE', #57, .T. ) ;
#146 = PRODUCT_DEFINITION ( 'UNKNOWN', '', #236, #133 ) ;
#147 = VERTEX_POINT ( 'NONE', #107 ) ;
#148 = AXIS2_PLACEMENT_3D ( 'NONE', #126, #85, #180 ) ;
#149 = CARTESIAN_POINT ( 'NONE',  ( 4.405065867994717829E-14, 2.793999999999998263, 12.61661008749452861 ) ) ;
#150 = AXIS2_PLACEMENT_3D ( 'NONE', #161, #232, #144 ) ;
#151 = COORDINATED_UNIVERSAL_TIME_OFFSET ( 1, 0, .AHEAD. ) ;
#152 = ADVANCED_FACE ( 'NONE', ( #44 ), #214, .T. ) ;
#153 = CLOSED_SHELL ( 'NONE', ( #20, #181, #130, #13, #226 ) ) ;
#154 = CC_DESIGN_PERSON_AND_ORGANIZATION_ASSIGNMENT ( #59, #7, ( #236 ) ) ;
#155 = ORIENTED_EDGE ( 'NONE', *, *, #237, .T. ) ;
#156 = APPROVAL_DATE_TIME ( #2, #222 ) ;
#157 = PERSON_AND_ORGANIZATION_ROLE ( 'classification_officer' ) ;
#158 = AXIS2_PLACEMENT_3D ( 'NONE', #163, #28, #102 ) ;
#159 = APPROVAL_ROLE ( '' ) ;
#160 = FACE_BOUND ( 'NONE', #173, .T. ) ;
#161 = CARTESIAN_POINT ( 'NONE',  ( -2.378613396030450102E-30, 2.563059892324147881, -6.812619530765068404E-16 ) ) ;
#162 = LOCAL_TIME ( 11, 4, 4.000000000000000000, #151 ) ;
#163 = CARTESIAN_POINT ( 'NONE',  ( 2.793185071074506684E-13, -7.225416114969383207E-15, 80.00000000000000000 ) ) ;
#164 = FACE_OUTER_BOUND ( 'NONE', #76, .T. ) ;
#165 = CARTESIAN_POINT ( 'NONE',  ( -6.842277657836020854E-46, 2.563059892324147881, 0.0000000000000000000 ) ) ;
#166 = ADVANCED_FACE ( 'NONE', ( #5 ), #82, .T. ) ;
#167 = VERTEX_POINT ( 'NONE', #51 ) ;
#168 = CLOSED_SHELL ( 'NONE', ( #152, #90, #6, #166 ) ) ;
#169 = LOCAL_TIME ( 11, 4, 4.000000000000000000, #26 ) ;
#170 = PLANE ( 'NONE',  #223 ) ;
#171 = CALENDAR_DATE ( 2021, 26, 11 ) ;
#172 = AXIS2_PLACEMENT_3D ( 'NONE', #18, #33, #91 ) ;
#173 = EDGE_LOOP ( 'NONE', ( #243 ) ) ;
#174 = EDGE_LOOP ( 'NONE', ( #75 ) ) ;
#175 = APPLICATION_CONTEXT ( 'configuration controlled 3d designs of mechanical parts and assemblies' ) ;
#176 = AXIS2_PLACEMENT_3D ( 'NONE', #234, #179, #9 ) ;
#177 = DIRECTION ( 'NONE',  ( -3.491481338843133355E-15, -5.316004944845418267E-16, -1.000000000000000000 ) ) ;
#178 = PERSON_AND_ORGANIZATION_ROLE ( 'design_owner' ) ;
#179 = DIRECTION ( 'NONE',  ( -3.491481338843133355E-15, 9.031770143711729009E-17, -1.000000000000000000 ) ) ;
#180 = DIRECTION ( 'NONE',  ( 0.0000000000000000000, 1.000000000000000000, 0.0000000000000000000 ) ) ;
#181 = ADVANCED_FACE ( 'NONE', ( #185, #38 ), #4, .T. ) ;
#182 = CARTESIAN_POINT ( 'NONE',  ( 2.793185071074506684E-13, -7.225416114969383207E-15, 80.00000000000000000 ) ) ;
#183 = AXIS2_PLACEMENT_3D ( 'NONE', #217, #84, #199 ) ;
#184 = CIRCLE ( 'NONE', #41, 2.793999999999991601 ) ;
#185 = FACE_BOUND ( 'NONE', #224, .T. ) ;
#186 = CC_DESIGN_PERSON_AND_ORGANIZATION_ASSIGNMENT ( #118, #178, ( #43 ) ) ;
#187 = DIRECTION ( 'NONE',  ( -3.491481338843133355E-15, 9.031770143711729009E-17, -1.000000000000000000 ) ) ;
#188 = CONICAL_SURFACE ( 'NONE', #148, 2.793999999999999595, 0.5235987755982929315 ) ;
#189 = ORIENTED_EDGE ( 'NONE', *, *, #79, .T. ) ;
#190 = PERSON_AND_ORGANIZATION ( #231, #30 ) ;
#191 = EDGE_CURVE ( 'NONE', #16, #16, #241, .T. ) ;
#192 = EDGE_LOOP ( 'NONE', ( #195 ) ) ;
#193 = DATE_AND_TIME ( #45, #100 ) ;
#194 =( GEOMETRIC_REPRESENTATION_CONTEXT ( 3 ) GLOBAL_UNCERTAINTY_ASSIGNED_CONTEXT ( ( #55 ) ) GLOBAL_UNIT_ASSIGNED_CONTEXT ( ( #129, #219, #17 ) ) REPRESENTATION_CONTEXT ( 'NONE', 'WORKASPACE' ) );
#195 = ORIENTED_EDGE ( 'NONE', *, *, #235, .T. ) ;
#196 = SECURITY_CLASSIFICATION_LEVEL ( 'unclassified' ) ;
#197 = CYLINDRICAL_SURFACE ( 'NONE', #201, 2.793999999999994710 ) ;
#198 = CC_DESIGN_PERSON_AND_ORGANIZATION_ASSIGNMENT ( #77, #73, ( #236 ) ) ;
#199 = DIRECTION ( 'NONE',  ( 1.856073206212559971E-30, -1.000000000000000000, 5.316004944845419253E-16 ) ) ;
#200 = ORIENTED_EDGE ( 'NONE', *, *, #235, .F. ) ;
#201 = AXIS2_PLACEMENT_3D ( 'NONE', #27, #31, #228 ) ;
#202 = DIRECTION ( 'NONE',  ( 0.0000000000000000000, 1.000000000000000000, 0.0000000000000000000 ) ) ;
#203 = DIRECTION ( 'NONE',  ( -3.491481338843133355E-15, 9.031770143711729009E-17, -1.000000000000000000 ) ) ;
#204 = AXIS2_PLACEMENT_3D ( 'NONE', #24, #67, #46 ) ;
#205 = FACE_OUTER_BOUND ( 'NONE', #99, .T. ) ;
#206 = CARTESIAN_POINT ( 'NONE',  ( 4.405065867994718461E-14, -1.139503223030853385E-15, 12.61661008749453039 ) ) ;
#207 = LOCAL_TIME ( 11, 4, 4.000000000000000000, #22 ) ;
#208 = ORIENTED_EDGE ( 'NONE', *, *, #83, .T. ) ;
#209 = APPROVAL_STATUS ( 'not_yet_approved' ) ;
#210 = CIRCLE ( 'NONE', #108, 1.999999999999995337 ) ;
#211 = CC_DESIGN_DATE_AND_TIME_ASSIGNMENT ( #215, #62, ( #19 ) ) ;
#212 = EDGE_LOOP ( 'NONE', ( #208 ) ) ;
#213 = COORDINATED_UNIVERSAL_TIME_OFFSET ( 1, 0, .AHEAD. ) ;
#214 = PLANE ( 'NONE',  #204 ) ;
#215 = DATE_AND_TIME ( #140, #135 ) ;
#216 = DIRECTION ( 'NONE',  ( -3.491481338843133355E-15, -5.316004944845418267E-16, -1.000000000000000000 ) ) ;
#217 = CARTESIAN_POINT ( 'NONE',  ( 4.757226792060900204E-30, 7.243183822579515028E-31, 1.362523906153013681E-15 ) ) ;
#218 = CARTESIAN_POINT ( 'NONE',  ( 4.405065867994719092E-14, 6.706996161230752607E-15, 12.61661008749453217 ) ) ;
#219 =( NAMED_UNIT ( * ) PLANE_ANGLE_UNIT ( ) SI_UNIT ( $, .RADIAN. ) );
#220 = APPLICATION_PROTOCOL_DEFINITION ( 'international standard', 'config_control_design', 1994, #142 ) ;
#221 = VERTEX_POINT ( 'NONE', #165 ) ;
#222 = APPROVAL ( #47, 'UNSPECIFIED' ) ;
#223 = AXIS2_PLACEMENT_3D ( 'NONE', #149, #87, #242 ) ;
#224 = EDGE_LOOP ( 'NONE', ( #189 ) ) ;
#225 = APPROVAL_DATE_TIME ( #101, #120 ) ;
#226 = ADVANCED_FACE ( 'NONE', ( #205 ), #170, .T. ) ;
#227 = DATE_AND_TIME ( #95, #207 ) ;
#228 = DIRECTION ( 'NONE',  ( -1.856073206212560321E-30, 1.000000000000000000, -5.316004944845418267E-16 ) ) ;
#229 = PRODUCT_RELATED_PRODUCT_CATEGORY ( 'detail', '', ( #43 ) ) ;
#230 = EDGE_LOOP ( 'NONE', ( #58 ) ) ;
#231 = PERSON ( 'UNSPECIFIED', 'UNSPECIFIED', 'UNSPECIFIED', ('UNSPECIFIED'), ('UNSPECIFIED'), ('UNSPECIFIED') ) ;
#232 = DIRECTION ( 'NONE',  ( -3.491481338843133355E-15, -5.316004944845418267E-16, -1.000000000000000000 ) ) ;
#233 = DIRECTION ( 'NONE',  ( -3.491481338843133355E-15, 9.031770143711729009E-17, -1.000000000000000000 ) ) ;
#234 = CARTESIAN_POINT ( 'NONE',  ( 0.0000000000000000000, 0.0000000000000000000, 0.0000000000000000000 ) ) ;
#235 = EDGE_CURVE ( 'NONE', #89, #89, #113, .T. ) ;
#236 = PRODUCT_DEFINITION_FORMATION_WITH_SPECIFIED_SOURCE ( 'ANY', '', #43, .NOT_KNOWN. ) ;
#237 = EDGE_CURVE ( 'NONE', #167, #167, #15, .T. ) ;
#238 = CARTESIAN_POINT ( 'NONE',  ( 4.885231259955590439E-14, 1.999999999999990452, 13.99185842870425134 ) ) ;
#239 = MANIFOLD_SOLID_BREP ( 'Corps-Déplacer/Copier1[1]', #153 ) ;
#240 = CARTESIAN_POINT ( 'NONE',  ( 2.793185071074506684E-13, 1.599999999999987876, 80.00000000000000000 ) ) ;
#241 = CIRCLE ( 'NONE', #122, 2.793999999999999595 ) ;
#242 = DIRECTION ( 'NONE',  ( 3.153425691349006731E-31, 1.000000000000000000, 9.031770143711729009E-17 ) ) ;
#243 = ORIENTED_EDGE ( 'NONE', *, *, #83, .F. ) ;
ENDSEC;
END-ISO-10303-21;
