ISO-10303-21;
HEADER;
FILE_DESCRIPTION (( 'STEP AP203' ),
    '1' );
FILE_NAME ('321461.step',
    '2021-11-26T10:04:03',
    ( '' ),
    ( '' ),
    'SwSTEP 2.0',
    'SolidWorks 2019',
    '' );
FILE_SCHEMA (( 'CONFIG_CONTROL_DESIGN' ));
ENDSEC;

DATA;
#1 = MANIFOLD_SOLID_BREP ( 'Corps-Déplacer/Copier1[2]', #6 ) ;
#2 = ADVANCED_FACE ( 'NONE', ( #114 ), #65, .T. ) ;
#3 = AXIS2_PLACEMENT_3D ( 'NONE', #233, #70, #170 ) ;
#4 = ORIENTED_EDGE ( 'NONE', *, *, #115, .F. ) ;
#5 = DIRECTION ( 'NONE',  ( -1.854213442250888011E-30, 1.000000000000000000, -5.310678369156808315E-16 ) ) ;
#6 = CLOSED_SHELL ( 'NONE', ( #58, #68, #196, #48 ) ) ;
#7 = AXIS2_PLACEMENT_3D ( 'NONE', #208, #53, #45 ) ;
#8 = DIRECTION ( 'NONE',  ( -3.491481338843133355E-15, -5.310678369156808315E-16, -1.000000000000000000 ) ) ;
#9 = CC_DESIGN_PERSON_AND_ORGANIZATION_ASSIGNMENT ( #75, #172, ( #51 ) ) ;
#10 = DIRECTION ( 'NONE',  ( 3.491481338843133355E-15, 5.310678369156808315E-16, 1.000000000000000000 ) ) ;
#11 = AXIS2_PLACEMENT_3D ( 'NONE', #12, #148, #214 ) ;
#12 = CARTESIAN_POINT ( 'NONE',  ( 4.408089579530997227E-14, 6.704875010753299363E-15, 12.62527034153237793 ) ) ;
#13 = FACE_OUTER_BOUND ( 'NONE', #38, .T. ) ;
#14 = APPLICATION_PROTOCOL_DEFINITION ( 'international standard', 'config_control_design', 1994, #102 ) ;
#15 = EDGE_LOOP ( 'NONE', ( #131 ) ) ;
#16 = CONICAL_SURFACE ( 'NONE', #7, 1.999999999999995337, 0.7853981633974516097 ) ;
#17 = ORIENTED_EDGE ( 'NONE', *, *, #138, .F. ) ;
#18 = APPROVAL_STATUS ( 'not_yet_approved' ) ;
#19 =( LENGTH_UNIT ( ) NAMED_UNIT ( * ) SI_UNIT ( .MILLI., .METRE. ) );
#20 = COORDINATED_UNIVERSAL_TIME_OFFSET ( 1, 0, .AHEAD. ) ;
#21 = SECURITY_CLASSIFICATION ( '', '', #33 ) ;
#22 = ORIENTED_EDGE ( 'NONE', *, *, #36, .F. ) ;
#23 = ADVANCED_BREP_SHAPE_REPRESENTATION ( '321461', ( #81, #1, #164 ), #227 ) ;
#24 = DATE_AND_TIME ( #97, #83 ) ;
#25 = CARTESIAN_POINT ( 'NONE',  ( 0.0000000000000000000, 0.0000000000000000000, 0.0000000000000000000 ) ) ;
#26 = FACE_OUTER_BOUND ( 'NONE', #61, .T. ) ;
#27 = APPROVAL_DATE_TIME ( #24, #168 ) ;
#28 = AXIS2_PLACEMENT_3D ( 'NONE', #84, #161, #64 ) ;
#29 = DIRECTION ( 'NONE',  ( 0.0000000000000000000, 1.000000000000000000, 0.0000000000000000000 ) ) ;
#30 = DIRECTION ( 'NONE',  ( 0.0000000000000000000, 1.000000000000000000, 0.0000000000000000000 ) ) ;
#31 = CARTESIAN_POINT ( 'NONE',  ( 4.408089579530996596E-14, -1.140285397269413075E-15, 12.62527034153237615 ) ) ;
#32 = CARTESIAN_POINT ( 'NONE',  ( 0.0000000000000000000, 2.558059892324148432, 0.0000000000000000000 ) ) ;
#33 = SECURITY_CLASSIFICATION_LEVEL ( 'unclassified' ) ;
#34 =( NAMED_UNIT ( * ) PLANE_ANGLE_UNIT ( ) SI_UNIT ( $, .RADIAN. ) );
#35 = COORDINATED_UNIVERSAL_TIME_OFFSET ( 1, 0, .AHEAD. ) ;
#36 = EDGE_CURVE ( 'NONE', #212, #212, #149, .T. ) ;
#37 = DATE_AND_TIME ( #174, #197 ) ;
#38 = EDGE_LOOP ( 'NONE', ( #4 ) ) ;
#39 = EDGE_LOOP ( 'NONE', ( #228 ) ) ;
#40 = CALENDAR_DATE ( 2021, 26, 11 ) ;
#41 = DATE_TIME_ROLE ( 'classification_date' ) ;
#42 = DIRECTION ( 'NONE',  ( -3.491481338843133355E-15, -5.310678369156808315E-16, -1.000000000000000000 ) ) ;
#43 = CC_DESIGN_APPROVAL ( #168, ( #21 ) ) ;
#44 = COORDINATED_UNIVERSAL_TIME_OFFSET ( 1, 0, .AHEAD. ) ;
#45 = DIRECTION ( 'NONE',  ( 0.0000000000000000000, 1.000000000000000000, 0.0000000000000000000 ) ) ;
#46 = VERTEX_POINT ( 'NONE', #32 ) ;
#47 = AXIS2_PLACEMENT_3D ( 'NONE', #206, #158, #226 ) ;
#48 = ADVANCED_FACE ( 'NONE', ( #180 ), #82, .T. ) ;
#49 = DIRECTION ( 'NONE',  ( -3.491481338843133355E-15, -5.310678369156808315E-16, -1.000000000000000000 ) ) ;
#50 = EDGE_LOOP ( 'NONE', ( #204 ) ) ;
#51 = PRODUCT ( '321461', '321461', '', ( #238 ) ) ;
#52 = CARTESIAN_POINT ( 'NONE',  ( 1.396592535537253145E-15, 2.788999999999997925, 0.3999999999999999667 ) ) ;
#53 = DIRECTION ( 'NONE',  ( -3.491481338843133355E-15, 9.031770143711729009E-17, -1.000000000000000000 ) ) ;
#54 = ORGANIZATION ( 'UNSPECIFIED', 'UNSPECIFIED', '' ) ;
#55 = COORDINATED_UNIVERSAL_TIME_OFFSET ( 1, 0, .AHEAD. ) ;
#56 = DESIGN_CONTEXT ( 'detailed design', #102, 'design' ) ;
#57 = APPROVAL_DATE_TIME ( #77, #80 ) ;
#58 = ADVANCED_FACE ( 'NONE', ( #141 ), #103, .T. ) ;
#59 = PERSON_AND_ORGANIZATION_ROLE ( 'design_supplier' ) ;
#60 = AXIS2_PLACEMENT_3D ( 'NONE', #87, #165, #198 ) ;
#61 = EDGE_LOOP ( 'NONE', ( #175 ) ) ;
#62 = CC_DESIGN_APPROVAL ( #80, ( #99 ) ) ;
#63 = CARTESIAN_POINT ( 'NONE',  ( -2.371594519215147496E-30, 2.558059892324148432, -6.792516668586723925E-16 ) ) ;
#64 = DIRECTION ( 'NONE',  ( 1.854213442250888011E-30, -1.000000000000000000, 5.310678369156808315E-16 ) ) ;
#65 = PLANE ( 'NONE',  #47 ) ;
#66 = AXIS2_PLACEMENT_3D ( 'NONE', #69, #105, #29 ) ;
#67 = DIRECTION ( 'NONE',  ( -3.491481338843133355E-15, 9.031770143711729009E-17, -1.000000000000000000 ) ) ;
#68 = ADVANCED_FACE ( 'NONE', ( #140, #100 ), #181, .T. ) ;
#69 = CARTESIAN_POINT ( 'NONE',  ( 2.779219145719134403E-13, -7.189289034394536528E-15, 79.60000000000000853 ) ) ;
#70 = DIRECTION ( 'NONE',  ( -3.491481338843133355E-15, 9.031770143711729009E-17, -1.000000000000000000 ) ) ;
#71 = DIRECTION ( 'NONE',  ( 3.153425691349006731E-31, 1.000000000000000000, 9.031770143711729009E-17 ) ) ;
#72 = UNCERTAINTY_MEASURE_WITH_UNIT (LENGTH_MEASURE( 1.000000000000000082E-05 ), #19, 'distance_accuracy_value', 'NONE');
#73 = ORIENTED_EDGE ( 'NONE', *, *, #162, .T. ) ;
#74 = FACE_OUTER_BOUND ( 'NONE', #156, .T. ) ;
#75 = PERSON_AND_ORGANIZATION ( #178, #54 ) ;
#76 = PERSON_AND_ORGANIZATION ( #178, #54 ) ;
#77 = DATE_AND_TIME ( #220, #117 ) ;
#78 = LOCAL_TIME ( 11, 4, 3.000000000000000000, #55 ) ;
#79 = APPROVAL_STATUS ( 'not_yet_approved' ) ;
#80 = APPROVAL ( #239, 'UNSPECIFIED' ) ;
#81 = MANIFOLD_SOLID_BREP ( 'Corps-Déplacer/Copier1[1]', #192 ) ;
#82 = PLANE ( 'NONE',  #124 ) ;
#83 = LOCAL_TIME ( 11, 4, 3.000000000000000000, #44 ) ;
#84 = CARTESIAN_POINT ( 'NONE',  ( 4.408089579530997227E-14, 6.704875010753299363E-15, 12.62527034153237793 ) ) ;
#85 = DATE_AND_TIME ( #40, #194 ) ;
#86 = AXIS2_PLACEMENT_3D ( 'NONE', #25, #8, #230 ) ;
#87 = CARTESIAN_POINT ( 'NONE',  ( 2.793185071074506684E-13, -7.225416114969383207E-15, 80.00000000000000000 ) ) ;
#88 = ORIENTED_EDGE ( 'NONE', *, *, #36, .T. ) ;
#89 = VERTEX_POINT ( 'NONE', #122 ) ;
#90 = DIRECTION ( 'NONE',  ( -3.153425691349006731E-31, -1.000000000000000000, -9.031770143711729009E-17 ) ) ;
#91 = APPLICATION_CONTEXT ( 'configuration controlled 3d designs of mechanical parts and assemblies' ) ;
#92 = CARTESIAN_POINT ( 'NONE',  ( 4.743189038430294992E-30, 7.214574268800116411E-31, 1.358503333717344785E-15 ) ) ;
#93 = APPROVAL_PERSON_ORGANIZATION ( #154, #236, #95 ) ;
#94 = PERSON_AND_ORGANIZATION ( #178, #54 ) ;
#95 = APPROVAL_ROLE ( '' ) ;
#96 = EDGE_CURVE ( 'NONE', #46, #46, #176, .T. ) ;
#97 = CALENDAR_DATE ( 2021, 26, 11 ) ;
#98 = EDGE_LOOP ( 'NONE', ( #116 ) ) ;
#99 = PRODUCT_DEFINITION ( 'UNKNOWN', '', #153, #56 ) ;
#100 = FACE_OUTER_BOUND ( 'NONE', #186, .T. ) ;
#101 = SHAPE_DEFINITION_REPRESENTATION ( #207, #23 ) ;
#102 = APPLICATION_CONTEXT ( 'configuration controlled 3d designs of mechanical parts and assemblies' ) ;
#103 = PLANE ( 'NONE',  #28 ) ;
#104 = CARTESIAN_POINT ( 'NONE',  ( 4.885231259955590439E-14, 1.999999999999990452, 13.99185842870425134 ) ) ;
#105 = DIRECTION ( 'NONE',  ( -3.491481338843133355E-15, 9.031770143711729009E-17, -1.000000000000000000 ) ) ;
#106 = DIRECTION ( 'NONE',  ( -1.854213442250888011E-30, 1.000000000000000000, -5.310678369156807329E-16 ) ) ;
#107 = FACE_BOUND ( 'NONE', #39, .T. ) ;
#108 = AXIS2_PLACEMENT_3D ( 'NONE', #200, #10, #127 ) ;
#109 = VERTEX_POINT ( 'NONE', #104 ) ;
#110 = CARTESIAN_POINT ( 'NONE',  ( 0.0000000000000000000, 0.0000000000000000000, 0.0000000000000000000 ) ) ;
#111 = ADVANCED_FACE ( 'NONE', ( #13 ), #187, .T. ) ;
#112 = DIRECTION ( 'NONE',  ( 0.0000000000000000000, 0.0000000000000000000, 1.000000000000000000 ) ) ;
#113 = CC_DESIGN_PERSON_AND_ORGANIZATION_ASSIGNMENT ( #221, #59, ( #153 ) ) ;
#114 = FACE_OUTER_BOUND ( 'NONE', #152, .T. ) ;
#115 = EDGE_CURVE ( 'NONE', #89, #89, #217, .T. ) ;
#116 = ORIENTED_EDGE ( 'NONE', *, *, #138, .T. ) ;
#117 = LOCAL_TIME ( 11, 4, 3.000000000000000000, #35 ) ;
#118 = CONICAL_SURFACE ( 'NONE', #108, 2.558059892324148432, 0.5235987755982978165 ) ;
#119 = CARTESIAN_POINT ( 'NONE',  ( 4.408089579530996596E-14, -1.140285397269413075E-15, 12.62527034153237615 ) ) ;
#120 = CONICAL_SURFACE ( 'NONE', #190, 2.788999999999999702, 0.5235987755982932645 ) ;
#121 = EDGE_CURVE ( 'NONE', #195, #195, #142, .T. ) ;
#122 = CARTESIAN_POINT ( 'NONE',  ( 2.793185071074506684E-13, 1.599999999999987876, 80.00000000000000000 ) ) ;
#123 = CARTESIAN_POINT ( 'NONE',  ( 0.0000000000000000000, 0.0000000000000000000, 0.0000000000000000000 ) ) ;
#124 = AXIS2_PLACEMENT_3D ( 'NONE', #63, #42, #5 ) ;
#125 = CARTESIAN_POINT ( 'NONE',  ( 1.396592535537258272E-15, 2.124271347662730919E-16, 0.4000000000000014100 ) ) ;
#126 = ORIENTED_EDGE ( 'NONE', *, *, #96, .T. ) ;
#127 = DIRECTION ( 'NONE',  ( 1.854213442250888011E-30, -1.000000000000000000, 5.310678369156807329E-16 ) ) ;
#128 = CARTESIAN_POINT ( 'NONE',  ( 4.408089579530996596E-14, 2.788999999999998369, 12.62527034153237615 ) ) ;
#129 = CC_DESIGN_APPROVAL ( #236, ( #153 ) ) ;
#130 = DATE_AND_TIME ( #177, #78 ) ;
#131 = ORIENTED_EDGE ( 'NONE', *, *, #96, .F. ) ;
#132 = AXIS2_PLACEMENT_3D ( 'NONE', #119, #243, #193 ) ;
#133 = PERSON_AND_ORGANIZATION_ROLE ( 'classification_officer' ) ;
#134 = COORDINATED_UNIVERSAL_TIME_OFFSET ( 1, 0, .AHEAD. ) ;
#135 = EDGE_LOOP ( 'NONE', ( #22 ) ) ;
#136 = CC_DESIGN_DATE_AND_TIME_ASSIGNMENT ( #85, #41, ( #21 ) ) ;
#137 = AXIS2_PLACEMENT_3D ( 'NONE', #123, #234, #71 ) ;
#138 = EDGE_CURVE ( 'NONE', #109, #109, #182, .T. ) ;
#139 = CC_DESIGN_PERSON_AND_ORGANIZATION_ASSIGNMENT ( #205, #133, ( #21 ) ) ;
#140 = FACE_OUTER_BOUND ( 'NONE', #237, .T. ) ;
#141 = FACE_OUTER_BOUND ( 'NONE', #242, .T. ) ;
#142 = CIRCLE ( 'NONE', #66, 1.999999999999995337 ) ;
#143 = APPROVAL_ROLE ( '' ) ;
#144 = DIRECTION ( 'NONE',  ( -1.864471441321455970E-30, 1.000000000000000000, -5.248020555236400440E-16 ) ) ;
#145 = ADVANCED_FACE ( 'NONE', ( #26, #74 ), #232, .T. ) ;
#146 = FACE_OUTER_BOUND ( 'NONE', #167, .T. ) ;
#147 = FACE_OUTER_BOUND ( 'NONE', #50, .T. ) ;
#148 = DIRECTION ( 'NONE',  ( -3.491481338843133355E-15, -5.310678369156808315E-16, -1.000000000000000000 ) ) ;
#149 = CIRCLE ( 'NONE', #132, 2.788999999999999702 ) ;
#150 = PERSON_AND_ORGANIZATION_ROLE ( 'creator' ) ;
#151 = PERSON_AND_ORGANIZATION_ROLE ( 'creator' ) ;
#152 = EDGE_LOOP ( 'NONE', ( #88 ) ) ;
#153 = PRODUCT_DEFINITION_FORMATION_WITH_SPECIFIED_SOURCE ( 'ANY', '', #51, .NOT_KNOWN. ) ;
#154 = PERSON_AND_ORGANIZATION ( #178, #54 ) ;
#155 = PRODUCT_RELATED_PRODUCT_CATEGORY ( 'detail', '', ( #51 ) ) ;
#156 = EDGE_LOOP ( 'NONE', ( #17 ) ) ;
#157 = APPROVAL_PERSON_ORGANIZATION ( #235, #80, #218 ) ;
#158 = DIRECTION ( 'NONE',  ( -3.491481338843133355E-15, 9.031770143711729009E-17, -1.000000000000000000 ) ) ;
#159 = CC_DESIGN_PERSON_AND_ORGANIZATION_ASSIGNMENT ( #76, #151, ( #153 ) ) ;
#160 = ORIENTED_EDGE ( 'NONE', *, *, #162, .F. ) ;
#161 = DIRECTION ( 'NONE',  ( 3.491481338843133355E-15, 5.310678369156808315E-16, 1.000000000000000000 ) ) ;
#162 = EDGE_CURVE ( 'NONE', #183, #183, #173, .T. ) ;
#163 = EDGE_LOOP ( 'NONE', ( #126 ) ) ;
#164 = AXIS2_PLACEMENT_3D ( 'NONE', #110, #112, #241 ) ;
#165 = DIRECTION ( 'NONE',  ( -3.491481338843133355E-15, 9.031770143711729009E-17, -1.000000000000000000 ) ) ;
#166 = CARTESIAN_POINT ( 'NONE',  ( 2.779219145719134403E-13, 1.999999999999988010, 79.60000000000000853 ) ) ;
#167 = EDGE_LOOP ( 'NONE', ( #73 ) ) ;
#168 = APPROVAL ( #79, 'UNSPECIFIED' ) ;
#169 = DIRECTION ( 'NONE',  ( 3.491481338843133355E-15, -9.031770143711729009E-17, 1.000000000000000000 ) ) ;
#170 = DIRECTION ( 'NONE',  ( 0.0000000000000000000, 1.000000000000000000, 0.0000000000000000000 ) ) ;
#171 = ORIENTED_EDGE ( 'NONE', *, *, #213, .F. ) ;
#172 = PERSON_AND_ORGANIZATION_ROLE ( 'design_owner' ) ;
#173 = CIRCLE ( 'NONE', #225, 2.788999999999997925 ) ;
#174 = CALENDAR_DATE ( 2021, 26, 11 ) ;
#175 = ORIENTED_EDGE ( 'NONE', *, *, #121, .T. ) ;
#176 = CIRCLE ( 'NONE', #179, 2.558059892324148432 ) ;
#177 = CALENDAR_DATE ( 2021, 26, 11 ) ;
#178 = PERSON ( 'UNSPECIFIED', 'UNSPECIFIED', 'UNSPECIFIED', ('UNSPECIFIED'), ('UNSPECIFIED'), ('UNSPECIFIED') ) ;
#179 = AXIS2_PLACEMENT_3D ( 'NONE', #92, #184, #106 ) ;
#180 = FACE_OUTER_BOUND ( 'NONE', #163, .T. ) ;
#181 = CYLINDRICAL_SURFACE ( 'NONE', #86, 2.788999999999995261 ) ;
#182 = CIRCLE ( 'NONE', #3, 1.999999999999991784 ) ;
#183 = VERTEX_POINT ( 'NONE', #52 ) ;
#184 = DIRECTION ( 'NONE',  ( -3.491481338843133355E-15, -5.310678369156808315E-16, -1.000000000000000000 ) ) ;
#185 = ADVANCED_FACE ( 'NONE', ( #209, #229 ), #120, .T. ) ;
#186 = EDGE_LOOP ( 'NONE', ( #160 ) ) ;
#187 = PLANE ( 'NONE',  #222 ) ;
#188 = CARTESIAN_POINT ( 'NONE',  ( 2.793185071074506684E-13, -7.225416114969383207E-15, 80.00000000000000000 ) ) ;
#189 =( NAMED_UNIT ( * ) SI_UNIT ( $, .STERADIAN. ) SOLID_ANGLE_UNIT ( ) );
#190 = AXIS2_PLACEMENT_3D ( 'NONE', #31, #67, #30 ) ;
#191 = DATE_TIME_ROLE ( 'creation_date' ) ;
#192 = CLOSED_SHELL ( 'NONE', ( #111, #224, #145, #185, #2 ) ) ;
#193 = DIRECTION ( 'NONE',  ( 0.0000000000000000000, 1.000000000000000000, 0.0000000000000000000 ) ) ;
#194 = LOCAL_TIME ( 11, 4, 3.000000000000000000, #134 ) ;
#195 = VERTEX_POINT ( 'NONE', #166 ) ;
#196 = ADVANCED_FACE ( 'NONE', ( #146, #211 ), #118, .T. ) ;
#197 = LOCAL_TIME ( 11, 4, 3.000000000000000000, #20 ) ;
#198 = DIRECTION ( 'NONE',  ( 0.0000000000000000000, 1.000000000000000000, 0.0000000000000000000 ) ) ;
#199 = PERSON_AND_ORGANIZATION ( #178, #54 ) ;
#200 = CARTESIAN_POINT ( 'NONE',  ( 4.743189038430294992E-30, 7.214574268800116411E-31, 1.358503333717344785E-15 ) ) ;
#201 = VERTEX_POINT ( 'NONE', #202 ) ;
#202 = CARTESIAN_POINT ( 'NONE',  ( 4.408089579530996596E-14, 2.788999999999998369, 12.62527034153237615 ) ) ;
#203 = CC_DESIGN_DATE_AND_TIME_ASSIGNMENT ( #37, #191, ( #99 ) ) ;
#204 = ORIENTED_EDGE ( 'NONE', *, *, #121, .F. ) ;
#205 = PERSON_AND_ORGANIZATION ( #178, #54 ) ;
#206 = CARTESIAN_POINT ( 'NONE',  ( 4.408089579530997227E-14, 2.788999999999998369, 12.62527034153237793 ) ) ;
#207 = PRODUCT_DEFINITION_SHAPE ( 'NONE', 'NONE',  #99 ) ;
#208 = CARTESIAN_POINT ( 'NONE',  ( 2.779219145719134403E-13, -7.189289034394536528E-15, 79.60000000000000853 ) ) ;
#209 = FACE_BOUND ( 'NONE', #98, .T. ) ;
#210 = CC_DESIGN_SECURITY_CLASSIFICATION ( #21, ( #153 ) ) ;
#211 = FACE_BOUND ( 'NONE', #15, .T. ) ;
#212 = VERTEX_POINT ( 'NONE', #128 ) ;
#213 = EDGE_CURVE ( 'NONE', #201, #201, #231, .T. ) ;
#214 = DIRECTION ( 'NONE',  ( -2.209743930455063533E-30, 1.000000000000000000, -6.219876213613524598E-16 ) ) ;
#215 = CC_DESIGN_PERSON_AND_ORGANIZATION_ASSIGNMENT ( #94, #150, ( #99 ) ) ;
#216 = APPLICATION_PROTOCOL_DEFINITION ( 'international standard', 'config_control_design', 1994, #91 ) ;
#217 = CIRCLE ( 'NONE', #60, 1.599999999999994982 ) ;
#218 = APPROVAL_ROLE ( '' ) ;
#219 = ORIENTED_EDGE ( 'NONE', *, *, #213, .T. ) ;
#220 = CALENDAR_DATE ( 2021, 26, 11 ) ;
#221 = PERSON_AND_ORGANIZATION ( #178, #54 ) ;
#222 = AXIS2_PLACEMENT_3D ( 'NONE', #188, #169, #90 ) ;
#223 = APPROVAL_DATE_TIME ( #130, #236 ) ;
#224 = ADVANCED_FACE ( 'NONE', ( #107, #147 ), #16, .T. ) ;
#225 = AXIS2_PLACEMENT_3D ( 'NONE', #125, #49, #144 ) ;
#226 = DIRECTION ( 'NONE',  ( 3.153425691349006731E-31, 1.000000000000000000, 9.031770143711729009E-17 ) ) ;
#227 =( GEOMETRIC_REPRESENTATION_CONTEXT ( 3 ) GLOBAL_UNCERTAINTY_ASSIGNED_CONTEXT ( ( #72 ) ) GLOBAL_UNIT_ASSIGNED_CONTEXT ( ( #19, #34, #189 ) ) REPRESENTATION_CONTEXT ( 'NONE', 'WORKASPACE' ) );
#228 = ORIENTED_EDGE ( 'NONE', *, *, #115, .T. ) ;
#229 = FACE_OUTER_BOUND ( 'NONE', #135, .T. ) ;
#230 = DIRECTION ( 'NONE',  ( -1.854213442250887661E-30, 1.000000000000000000, -5.310678369156807329E-16 ) ) ;
#231 = CIRCLE ( 'NONE', #11, 2.788999999999992152 ) ;
#232 = CYLINDRICAL_SURFACE ( 'NONE', #137, 1.999999999999993561 ) ;
#233 = CARTESIAN_POINT ( 'NONE',  ( 4.885231259955590439E-14, -1.263712492114123682E-15, 13.99185842870425134 ) ) ;
#234 = DIRECTION ( 'NONE',  ( -3.491481338843133355E-15, 9.031770143711729009E-17, -1.000000000000000000 ) ) ;
#235 = PERSON_AND_ORGANIZATION ( #178, #54 ) ;
#236 = APPROVAL ( #18, 'UNSPECIFIED' ) ;
#237 = EDGE_LOOP ( 'NONE', ( #219 ) ) ;
#238 = MECHANICAL_CONTEXT ( 'NONE', #91, 'mechanical' ) ;
#239 = APPROVAL_STATUS ( 'not_yet_approved' ) ;
#240 = APPROVAL_PERSON_ORGANIZATION ( #199, #168, #143 ) ;
#241 = DIRECTION ( 'NONE',  ( 1.000000000000000000, 0.0000000000000000000, 0.0000000000000000000 ) ) ;
#242 = EDGE_LOOP ( 'NONE', ( #171 ) ) ;
#243 = DIRECTION ( 'NONE',  ( -3.491481338843133355E-15, 9.031770143711729009E-17, -1.000000000000000000 ) ) ;
ENDSEC;
END-ISO-10303-21;
