ISO-10303-21;
HEADER;
FILE_DESCRIPTION (( 'STEP AP203' ),
    '1' );
FILE_NAME ('321460.step',
    '2021-11-26T10:04:03',
    ( '' ),
    ( '' ),
    'SwSTEP 2.0',
    'SolidWorks 2019',
    '' );
FILE_SCHEMA (( 'CONFIG_CONTROL_DESIGN' ));
ENDSEC;

DATA;
#1 = APPROVAL_STATUS ( 'not_yet_approved' ) ;
#2 = PERSON_AND_ORGANIZATION ( #32, #210 ) ;
#3 = COORDINATED_UNIVERSAL_TIME_OFFSET ( 1, 0, .AHEAD. ) ;
#4 = ADVANCED_FACE ( 'NONE', ( #35 ), #89, .T. ) ;
#5 = CLOSED_SHELL ( 'NONE', ( #195, #152, #84, #166 ) ) ;
#6 = CC_DESIGN_DATE_AND_TIME_ASSIGNMENT ( #117, #173, ( #200 ) ) ;
#7 = AXIS2_PLACEMENT_3D ( 'NONE', #220, #122, #221 ) ;
#8 = ORIENTED_EDGE ( 'NONE', *, *, #216, .T. ) ;
#9 = DIRECTION ( 'NONE',  ( 3.153425691349006731E-31, 1.000000000000000000, 9.031770143711729009E-17 ) ) ;
#10 = EDGE_LOOP ( 'NONE', ( #234 ) ) ;
#11 =( GEOMETRIC_REPRESENTATION_CONTEXT ( 3 ) GLOBAL_UNCERTAINTY_ASSIGNED_CONTEXT ( ( #110 ) ) GLOBAL_UNIT_ASSIGNED_CONTEXT ( ( #150, #78, #77 ) ) REPRESENTATION_CONTEXT ( 'NONE', 'WORKASPACE' ) );
#12 = EDGE_CURVE ( 'NONE', #185, #185, #140, .T. ) ;
#13 = ADVANCED_FACE ( 'NONE', ( #143, #120 ), #180, .T. ) ;
#14 = ORIENTED_EDGE ( 'NONE', *, *, #191, .T. ) ;
#15 = VERTEX_POINT ( 'NONE', #170 ) ;
#16 = EDGE_CURVE ( 'NONE', #15, #15, #227, .T. ) ;
#17 = DIRECTION ( 'NONE',  ( -2.213712579755449855E-30, 1.000000000000000000, -6.231046968307514610E-16 ) ) ;
#18 = DESIGN_CONTEXT ( 'detailed design', #93, 'design' ) ;
#19 = DIRECTION ( 'NONE',  ( -3.491481338843133355E-15, -5.305359095945966750E-16, -1.000000000000000000 ) ) ;
#20 = CARTESIAN_POINT ( 'NONE',  ( 4.411113291067274100E-14, -1.141067571507972568E-15, 12.63393059557022191 ) ) ;
#21 = CC_DESIGN_APPROVAL ( #240, ( #119 ) ) ;
#22 = DIRECTION ( 'NONE',  ( -3.491481338843133355E-15, 9.031770143711729009E-17, -1.000000000000000000 ) ) ;
#23 = APPROVAL_PERSON_ORGANIZATION ( #136, #189, #196 ) ;
#24 = CALENDAR_DATE ( 2021, 26, 11 ) ;
#25 = APPROVAL_ROLE ( '' ) ;
#26 = ADVANCED_FACE ( 'NONE', ( #121 ), #233, .T. ) ;
#27 = PERSON_AND_ORGANIZATION_ROLE ( 'creator' ) ;
#28 = COORDINATED_UNIVERSAL_TIME_OFFSET ( 1, 0, .AHEAD. ) ;
#29 = ORIENTED_EDGE ( 'NONE', *, *, #59, .F. ) ;
#30 = CIRCLE ( 'NONE', #75, 1.999999999999995337 ) ;
#31 = EDGE_LOOP ( 'NONE', ( #29 ) ) ;
#32 = PERSON ( 'UNSPECIFIED', 'UNSPECIFIED', 'UNSPECIFIED', ('UNSPECIFIED'), ('UNSPECIFIED'), ('UNSPECIFIED') ) ;
#33 = EDGE_LOOP ( 'NONE', ( #8 ) ) ;
#34 = FACE_OUTER_BOUND ( 'NONE', #182, .T. ) ;
#35 = FACE_OUTER_BOUND ( 'NONE', #142, .T. ) ;
#36 = DIRECTION ( 'NONE',  ( 0.0000000000000000000, 1.000000000000000000, 0.0000000000000000000 ) ) ;
#37 = APPROVAL ( #46, 'UNSPECIFIED' ) ;
#38 = CARTESIAN_POINT ( 'NONE',  ( 4.885231259955590439E-14, -1.263712492114123682E-15, 13.99185842870425134 ) ) ;
#39 = DIRECTION ( 'NONE',  ( 0.0000000000000000000, 1.000000000000000000, 0.0000000000000000000 ) ) ;
#40 = DIRECTION ( 'NONE',  ( -3.491481338843133355E-15, 9.031770143711729009E-17, -1.000000000000000000 ) ) ;
#41 = DIRECTION ( 'NONE',  ( -3.491481338843133355E-15, 9.031770143711729009E-17, -1.000000000000000000 ) ) ;
#42 = AXIS2_PLACEMENT_3D ( 'NONE', #38, #41, #36 ) ;
#43 = CALENDAR_DATE ( 2021, 26, 11 ) ;
#44 = CIRCLE ( 'NONE', #102, 1.599999999999994982 ) ;
#45 = ADVANCED_FACE ( 'NONE', ( #204, #34 ), #222, .T. ) ;
#46 = APPROVAL_STATUS ( 'not_yet_approved' ) ;
#47 = CALENDAR_DATE ( 2021, 26, 11 ) ;
#48 = PERSON_AND_ORGANIZATION ( #32, #210 ) ;
#49 = DIRECTION ( 'NONE',  ( -3.491481338843133355E-15, -5.305359095945966750E-16, -1.000000000000000000 ) ) ;
#50 = DIRECTION ( 'NONE',  ( -1.867819989168656874E-30, 1.000000000000000000, -5.257445879509454359E-16 ) ) ;
#51 = ORIENTED_EDGE ( 'NONE', *, *, #16, .F. ) ;
#52 = LOCAL_TIME ( 11, 4, 3.000000000000000000, #194 ) ;
#53 = AXIS2_PLACEMENT_3D ( 'NONE', #218, #105, #67 ) ;
#54 = DIRECTION ( 'NONE',  ( 1.852356227935701799E-30, -1.000000000000000000, 5.305359095945966750E-16 ) ) ;
#55 = PRODUCT_DEFINITION_SHAPE ( 'NONE', 'NONE',  #119 ) ;
#56 = VERTEX_POINT ( 'NONE', #109 ) ;
#57 = CARTESIAN_POINT ( 'NONE',  ( 4.411113291067274100E-14, 2.783999999999998476, 12.63393059557022191 ) ) ;
#58 = PLANE ( 'NONE',  #114 ) ;
#59 = EDGE_CURVE ( 'NONE', #134, #134, #232, .T. ) ;
#60 = PERSON_AND_ORGANIZATION ( #32, #210 ) ;
#61 = LOCAL_TIME ( 11, 4, 3.000000000000000000, #212 ) ;
#62 = COORDINATED_UNIVERSAL_TIME_OFFSET ( 1, 0, .AHEAD. ) ;
#63 = APPLICATION_PROTOCOL_DEFINITION ( 'international standard', 'config_control_design', 1994, #93 ) ;
#64 = APPROVAL_DATE_TIME ( #175, #37 ) ;
#65 = CONICAL_SURFACE ( 'NONE', #137, 2.553059892324148095, 0.5235987755982978165 ) ;
#66 = ORIENTED_EDGE ( 'NONE', *, *, #12, .F. ) ;
#67 = DIRECTION ( 'NONE',  ( -3.153425691349006731E-31, -1.000000000000000000, -9.031770143711729009E-17 ) ) ;
#68 = DIRECTION ( 'NONE',  ( -1.852356227935701799E-30, 1.000000000000000000, -5.305359095945966750E-16 ) ) ;
#69 = CLOSED_SHELL ( 'NONE', ( #4, #45, #13, #76, #26 ) ) ;
#70 = CARTESIAN_POINT ( 'NONE',  ( 6.842277657836020854E-46, 2.553059892324148095, 0.0000000000000000000 ) ) ;
#71 = DIRECTION ( 'NONE',  ( -3.491481338843133355E-15, 9.031770143711729009E-17, -1.000000000000000000 ) ) ;
#72 = DIRECTION ( 'NONE',  ( 3.491481338843133355E-15, 5.305359095945966750E-16, 1.000000000000000000 ) ) ;
#73 = CC_DESIGN_PERSON_AND_ORGANIZATION_ASSIGNMENT ( #2, #154, ( #168 ) ) ;
#74 = CARTESIAN_POINT ( 'NONE',  ( 0.0000000000000000000, 0.0000000000000000000, 0.0000000000000000000 ) ) ;
#75 = AXIS2_PLACEMENT_3D ( 'NONE', #146, #208, #129 ) ;
#76 = ADVANCED_FACE ( 'NONE', ( #165, #225 ), #148, .T. ) ;
#77 =( NAMED_UNIT ( * ) SI_UNIT ( $, .STERADIAN. ) SOLID_ANGLE_UNIT ( ) );
#78 =( NAMED_UNIT ( * ) PLANE_ANGLE_UNIT ( ) SI_UNIT ( $, .RADIAN. ) );
#79 = MANIFOLD_SOLID_BREP ( 'Corps-Déplacer/Copier1[1]', #69 ) ;
#80 = CALENDAR_DATE ( 2021, 26, 11 ) ;
#81 = MANIFOLD_SOLID_BREP ( 'Corps-Déplacer/Copier1[2]', #5 ) ;
#82 = APPROVAL_PERSON_ORGANIZATION ( #230, #37, #99 ) ;
#83 = DIRECTION ( 'NONE',  ( -3.491481338843133355E-15, 9.031770143711729009E-17, -1.000000000000000000 ) ) ;
#84 = ADVANCED_FACE ( 'NONE', ( #186, #228 ), #65, .T. ) ;
#85 = EDGE_LOOP ( 'NONE', ( #163 ) ) ;
#86 = EDGE_LOOP ( 'NONE', ( #51 ) ) ;
#87 = EDGE_LOOP ( 'NONE', ( #103 ) ) ;
#88 = PRODUCT ( '321460', '321460', '', ( #229 ) ) ;
#89 = PLANE ( 'NONE',  #53 ) ;
#90 = CARTESIAN_POINT ( 'NONE',  ( 2.779219145719134403E-13, -7.189289034394536528E-15, 79.60000000000000853 ) ) ;
#91 = LOCAL_TIME ( 11, 4, 3.000000000000000000, #3 ) ;
#92 = CC_DESIGN_PERSON_AND_ORGANIZATION_ASSIGNMENT ( #48, #118, ( #88 ) ) ;
#93 = APPLICATION_CONTEXT ( 'configuration controlled 3d designs of mechanical parts and assemblies' ) ;
#94 = CYLINDRICAL_SURFACE ( 'NONE', #169, 2.783999999999994923 ) ;
#95 = FACE_OUTER_BOUND ( 'NONE', #85, .T. ) ;
#96 = DATE_AND_TIME ( #231, #97 ) ;
#97 = LOCAL_TIME ( 11, 4, 3.000000000000000000, #62 ) ;
#98 = APPROVAL_DATE_TIME ( #213, #189 ) ;
#99 = APPROVAL_ROLE ( '' ) ;
#100 = DATE_TIME_ROLE ( 'creation_date' ) ;
#101 = EDGE_LOOP ( 'NONE', ( #184 ) ) ;
#102 = AXIS2_PLACEMENT_3D ( 'NONE', #236, #22, #39 ) ;
#103 = ORIENTED_EDGE ( 'NONE', *, *, #128, .F. ) ;
#104 = EDGE_LOOP ( 'NONE', ( #66 ) ) ;
#105 = DIRECTION ( 'NONE',  ( 3.491481338843133355E-15, -9.031770143711729009E-17, 1.000000000000000000 ) ) ;
#106 = APPROVAL_PERSON_ORGANIZATION ( #198, #240, #25 ) ;
#107 = ORIENTED_EDGE ( 'NONE', *, *, #199, .T. ) ;
#108 = DIRECTION ( 'NONE',  ( 3.491481338843133355E-15, 5.305359095945966750E-16, 1.000000000000000000 ) ) ;
#109 = CARTESIAN_POINT ( 'NONE',  ( 2.793185071074506684E-13, 1.599999999999987876, 80.00000000000000000 ) ) ;
#110 = UNCERTAINTY_MEASURE_WITH_UNIT (LENGTH_MEASURE( 1.000000000000000082E-05 ), #150, 'distance_accuracy_value', 'NONE');
#111 = CARTESIAN_POINT ( 'NONE',  ( 4.411113291067274731E-14, 6.702753860275853219E-15, 12.63393059557022369 ) ) ;
#112 = CARTESIAN_POINT ( 'NONE',  ( -2.364588195919744110E-30, 2.553059892324148095, -6.772449761118374491E-16 ) ) ;
#113 = FACE_OUTER_BOUND ( 'NONE', #164, .T. ) ;
#114 = AXIS2_PLACEMENT_3D ( 'NONE', #112, #190, #68 ) ;
#115 = APPROVAL_STATUS ( 'not_yet_approved' ) ;
#116 = PERSON_AND_ORGANIZATION_ROLE ( 'design_supplier' ) ;
#117 = DATE_AND_TIME ( #47, #52 ) ;
#118 = PERSON_AND_ORGANIZATION_ROLE ( 'design_owner' ) ;
#119 = PRODUCT_DEFINITION ( 'UNKNOWN', '', #168, #18 ) ;
#120 = FACE_OUTER_BOUND ( 'NONE', #201, .T. ) ;
#121 = FACE_OUTER_BOUND ( 'NONE', #10, .T. ) ;
#122 = DIRECTION ( 'NONE',  ( -3.491481338843133355E-15, 9.031770143711729009E-17, -1.000000000000000000 ) ) ;
#123 = DIRECTION ( 'NONE',  ( -1.852356227935701799E-30, 1.000000000000000000, -5.305359095945966750E-16 ) ) ;
#124 = PRODUCT_RELATED_PRODUCT_CATEGORY ( 'detail', '', ( #88 ) ) ;
#125 = ORIENTED_EDGE ( 'NONE', *, *, #216, .F. ) ;
#126 = AXIS2_PLACEMENT_3D ( 'NONE', #155, #214, #138 ) ;
#127 = AXIS2_PLACEMENT_3D ( 'NONE', #226, #108, #242 ) ;
#128 = EDGE_CURVE ( 'NONE', #167, #167, #171, .T. ) ;
#129 = DIRECTION ( 'NONE',  ( 0.0000000000000000000, 1.000000000000000000, 0.0000000000000000000 ) ) ;
#130 = VERTEX_POINT ( 'NONE', #206 ) ;
#131 = CC_DESIGN_PERSON_AND_ORGANIZATION_ASSIGNMENT ( #176, #116, ( #168 ) ) ;
#132 = PLANE ( 'NONE',  #127 ) ;
#133 = DIRECTION ( 'NONE',  ( 0.0000000000000000000, 1.000000000000000000, 0.0000000000000000000 ) ) ;
#134 = VERTEX_POINT ( 'NONE', #57 ) ;
#135 = PERSON_AND_ORGANIZATION_ROLE ( 'classification_officer' ) ;
#136 = PERSON_AND_ORGANIZATION ( #32, #210 ) ;
#137 = AXIS2_PLACEMENT_3D ( 'NONE', #223, #72, #54 ) ;
#138 = DIRECTION ( 'NONE',  ( 1.000000000000000000, 0.0000000000000000000, 0.0000000000000000000 ) ) ;
#139 = DATE_AND_TIME ( #43, #158 ) ;
#140 = CIRCLE ( 'NONE', #193, 2.553059892324148095 ) ;
#141 = EDGE_LOOP ( 'NONE', ( #107 ) ) ;
#142 = EDGE_LOOP ( 'NONE', ( #145 ) ) ;
#143 = FACE_OUTER_BOUND ( 'NONE', #33, .T. ) ;
#144 = CARTESIAN_POINT ( 'NONE',  ( 4.729176391839488220E-30, 7.186055588397290995E-31, 1.354489952223674898E-15 ) ) ;
#145 = ORIENTED_EDGE ( 'NONE', *, *, #199, .F. ) ;
#146 = CARTESIAN_POINT ( 'NONE',  ( 2.779219145719134403E-13, -7.189289034394536528E-15, 79.60000000000000853 ) ) ;
#147 = AXIS2_PLACEMENT_3D ( 'NONE', #219, #83, #9 ) ;
#148 = CONICAL_SURFACE ( 'NONE', #239, 2.783999999999999364, 0.5235987755982933756 ) ;
#149 = CARTESIAN_POINT ( 'NONE',  ( 4.411113291067274100E-14, -1.141067571507972568E-15, 12.63393059557022191 ) ) ;
#150 =( LENGTH_UNIT ( ) NAMED_UNIT ( * ) SI_UNIT ( .MILLI., .METRE. ) );
#151 = DIRECTION ( 'NONE',  ( -1.852356227935701449E-30, 1.000000000000000000, -5.305359095945966750E-16 ) ) ;
#152 = ADVANCED_FACE ( 'NONE', ( #113, #205 ), #94, .T. ) ;
#153 = AXIS2_PLACEMENT_3D ( 'NONE', #149, #71, #188 ) ;
#154 = PERSON_AND_ORGANIZATION_ROLE ( 'creator' ) ;
#155 = CARTESIAN_POINT ( 'NONE',  ( 0.0000000000000000000, 0.0000000000000000000, 0.0000000000000000000 ) ) ;
#156 = SECURITY_CLASSIFICATION_LEVEL ( 'unclassified' ) ;
#157 = SHAPE_DEFINITION_REPRESENTATION ( #55, #187 ) ;
#158 = LOCAL_TIME ( 11, 4, 3.000000000000000000, #28 ) ;
#159 = AXIS2_PLACEMENT_3D ( 'NONE', #111, #19, #17 ) ;
#160 = DIRECTION ( 'NONE',  ( -3.491481338843133355E-15, -5.305359095945966750E-16, -1.000000000000000000 ) ) ;
#161 = CARTESIAN_POINT ( 'NONE',  ( 1.396592535537258272E-15, 2.122143638378394441E-16, 0.4000000000000014100 ) ) ;
#162 = CC_DESIGN_DATE_AND_TIME_ASSIGNMENT ( #139, #100, ( #119 ) ) ;
#163 = ORIENTED_EDGE ( 'NONE', *, *, #12, .T. ) ;
#164 = EDGE_LOOP ( 'NONE', ( #179 ) ) ;
#165 = FACE_BOUND ( 'NONE', #235, .T. ) ;
#166 = ADVANCED_FACE ( 'NONE', ( #95 ), #58, .T. ) ;
#167 = VERTEX_POINT ( 'NONE', #209 ) ;
#168 = PRODUCT_DEFINITION_FORMATION_WITH_SPECIFIED_SOURCE ( 'ANY', '', #88, .NOT_KNOWN. ) ;
#169 = AXIS2_PLACEMENT_3D ( 'NONE', #74, #207, #151 ) ;
#170 = CARTESIAN_POINT ( 'NONE',  ( 1.396592535537253145E-15, 2.783999999999998032, 0.3999999999999999667 ) ) ;
#171 = CIRCLE ( 'NONE', #159, 2.783999999999991815 ) ;
#172 = PERSON_AND_ORGANIZATION ( #32, #210 ) ;
#173 = DATE_TIME_ROLE ( 'classification_date' ) ;
#174 = CC_DESIGN_SECURITY_CLASSIFICATION ( #200, ( #168 ) ) ;
#175 = DATE_AND_TIME ( #80, #91 ) ;
#176 = PERSON_AND_ORGANIZATION ( #32, #210 ) ;
#177 = AXIS2_PLACEMENT_3D ( 'NONE', #90, #243, #241 ) ;
#178 = AXIS2_PLACEMENT_3D ( 'NONE', #161, #160, #50 ) ;
#179 = ORIENTED_EDGE ( 'NONE', *, *, #128, .T. ) ;
#180 = CYLINDRICAL_SURFACE ( 'NONE', #147, 1.999999999999993561 ) ;
#181 = CC_DESIGN_PERSON_AND_ORGANIZATION_ASSIGNMENT ( #172, #27, ( #119 ) ) ;
#182 = EDGE_LOOP ( 'NONE', ( #125 ) ) ;
#183 = APPLICATION_CONTEXT ( 'configuration controlled 3d designs of mechanical parts and assemblies' ) ;
#184 = ORIENTED_EDGE ( 'NONE', *, *, #16, .T. ) ;
#185 = VERTEX_POINT ( 'NONE', #70 ) ;
#186 = FACE_OUTER_BOUND ( 'NONE', #101, .T. ) ;
#187 = ADVANCED_BREP_SHAPE_REPRESENTATION ( '321460', ( #79, #81, #126 ), #11 ) ;
#188 = DIRECTION ( 'NONE',  ( 0.0000000000000000000, 1.000000000000000000, 0.0000000000000000000 ) ) ;
#189 = APPROVAL ( #115, 'UNSPECIFIED' ) ;
#190 = DIRECTION ( 'NONE',  ( -3.491481338843133355E-15, -5.305359095945966750E-16, -1.000000000000000000 ) ) ;
#191 = EDGE_CURVE ( 'NONE', #238, #238, #211, .T. ) ;
#192 = FACE_OUTER_BOUND ( 'NONE', #87, .T. ) ;
#193 = AXIS2_PLACEMENT_3D ( 'NONE', #144, #49, #123 ) ;
#194 = COORDINATED_UNIVERSAL_TIME_OFFSET ( 1, 0, .AHEAD. ) ;
#195 = ADVANCED_FACE ( 'NONE', ( #192 ), #132, .T. ) ;
#196 = APPROVAL_ROLE ( '' ) ;
#197 = APPLICATION_PROTOCOL_DEFINITION ( 'international standard', 'config_control_design', 1994, #183 ) ;
#198 = PERSON_AND_ORGANIZATION ( #32, #210 ) ;
#199 = EDGE_CURVE ( 'NONE', #56, #56, #44, .T. ) ;
#200 = SECURITY_CLASSIFICATION ( '', '', #156 ) ;
#201 = EDGE_LOOP ( 'NONE', ( #203 ) ) ;
#202 = CC_DESIGN_PERSON_AND_ORGANIZATION_ASSIGNMENT ( #60, #135, ( #200 ) ) ;
#203 = ORIENTED_EDGE ( 'NONE', *, *, #191, .F. ) ;
#204 = FACE_BOUND ( 'NONE', #141, .T. ) ;
#205 = FACE_OUTER_BOUND ( 'NONE', #86, .T. ) ;
#206 = CARTESIAN_POINT ( 'NONE',  ( 2.779219145719134403E-13, 1.999999999999988010, 79.60000000000000853 ) ) ;
#207 = DIRECTION ( 'NONE',  ( -3.491481338843133355E-15, -5.305359095945966750E-16, -1.000000000000000000 ) ) ;
#208 = DIRECTION ( 'NONE',  ( -3.491481338843133355E-15, 9.031770143711729009E-17, -1.000000000000000000 ) ) ;
#209 = CARTESIAN_POINT ( 'NONE',  ( 4.411113291067274100E-14, 2.783999999999998476, 12.63393059557022191 ) ) ;
#210 = ORGANIZATION ( 'UNSPECIFIED', 'UNSPECIFIED', '' ) ;
#211 = CIRCLE ( 'NONE', #42, 1.999999999999991784 ) ;
#212 = COORDINATED_UNIVERSAL_TIME_OFFSET ( 1, 0, .AHEAD. ) ;
#213 = DATE_AND_TIME ( #24, #61 ) ;
#214 = DIRECTION ( 'NONE',  ( 0.0000000000000000000, 0.0000000000000000000, 1.000000000000000000 ) ) ;
#215 = CC_DESIGN_APPROVAL ( #189, ( #168 ) ) ;
#216 = EDGE_CURVE ( 'NONE', #130, #130, #30, .T. ) ;
#217 = APPROVAL_DATE_TIME ( #96, #240 ) ;
#218 = CARTESIAN_POINT ( 'NONE',  ( 2.793185071074506684E-13, -7.225416114969383207E-15, 80.00000000000000000 ) ) ;
#219 = CARTESIAN_POINT ( 'NONE',  ( 0.0000000000000000000, 0.0000000000000000000, 0.0000000000000000000 ) ) ;
#220 = CARTESIAN_POINT ( 'NONE',  ( 4.411113291067274100E-14, 2.783999999999998476, 12.63393059557022013 ) ) ;
#221 = DIRECTION ( 'NONE',  ( 3.153425691349006731E-31, 1.000000000000000000, 9.031770143711729009E-17 ) ) ;
#222 = CONICAL_SURFACE ( 'NONE', #177, 1.999999999999995337, 0.7853981633974516097 ) ;
#223 = CARTESIAN_POINT ( 'NONE',  ( 4.729176391839488220E-30, 7.186055588397290995E-31, 1.354489952223674898E-15 ) ) ;
#224 = CARTESIAN_POINT ( 'NONE',  ( 4.885231259955590439E-14, 1.999999999999990452, 13.99185842870425134 ) ) ;
#225 = FACE_OUTER_BOUND ( 'NONE', #31, .T. ) ;
#226 = CARTESIAN_POINT ( 'NONE',  ( 4.411113291067274100E-14, 6.702753860275850852E-15, 12.63393059557022013 ) ) ;
#227 = CIRCLE ( 'NONE', #178, 2.783999999999998032 ) ;
#228 = FACE_BOUND ( 'NONE', #104, .T. ) ;
#229 = MECHANICAL_CONTEXT ( 'NONE', #183, 'mechanical' ) ;
#230 = PERSON_AND_ORGANIZATION ( #32, #210 ) ;
#231 = CALENDAR_DATE ( 2021, 26, 11 ) ;
#232 = CIRCLE ( 'NONE', #153, 2.783999999999999364 ) ;
#233 = PLANE ( 'NONE',  #7 ) ;
#234 = ORIENTED_EDGE ( 'NONE', *, *, #59, .T. ) ;
#235 = EDGE_LOOP ( 'NONE', ( #14 ) ) ;
#236 = CARTESIAN_POINT ( 'NONE',  ( 2.793185071074506684E-13, -7.225416114969383207E-15, 80.00000000000000000 ) ) ;
#237 = CC_DESIGN_APPROVAL ( #37, ( #200 ) ) ;
#238 = VERTEX_POINT ( 'NONE', #224 ) ;
#239 = AXIS2_PLACEMENT_3D ( 'NONE', #20, #40, #133 ) ;
#240 = APPROVAL ( #1, 'UNSPECIFIED' ) ;
#241 = DIRECTION ( 'NONE',  ( 0.0000000000000000000, 1.000000000000000000, 0.0000000000000000000 ) ) ;
#242 = DIRECTION ( 'NONE',  ( 1.852356227935701799E-30, -1.000000000000000000, 5.305359095945966750E-16 ) ) ;
#243 = DIRECTION ( 'NONE',  ( -3.491481338843133355E-15, 9.031770143711729009E-17, -1.000000000000000000 ) ) ;
ENDSEC;
END-ISO-10303-21;
