ISO-10303-21;
HEADER;
FILE_DESCRIPTION (( 'STEP AP203' ),
    '1' );
FILE_NAME ('321459.step',
    '2021-11-26T10:04:02',
    ( '' ),
    ( '' ),
    'SwSTEP 2.0',
    'SolidWorks 2019',
    '' );
FILE_SCHEMA (( 'CONFIG_CONTROL_DESIGN' ));
ENDSEC;

DATA;
#1 = DIRECTION ( 'NONE',  ( 3.153425691349006731E-31, 1.000000000000000000, 9.031770143711729009E-17 ) ) ;
#2 = DIRECTION ( 'NONE',  ( 0.0000000000000000000, 1.000000000000000000, 0.0000000000000000000 ) ) ;
#3 = DIRECTION ( 'NONE',  ( 1.850501558027425166E-30, -1.000000000000000000, 5.300047110206150985E-16 ) ) ;
#4 = APPROVAL ( #233, 'UNSPECIFIED' ) ;
#5 = FACE_OUTER_BOUND ( 'NONE', #114, .T. ) ;
#6 = LOCAL_TIME ( 11, 4, 2.000000000000000000, #161 ) ;
#7 =( NAMED_UNIT ( * ) PLANE_ANGLE_UNIT ( ) SI_UNIT ( $, .RADIAN. ) );
#8 = DATE_AND_TIME ( #35, #28 ) ;
#9 = AXIS2_PLACEMENT_3D ( 'NONE', #172, #22, #1 ) ;
#10 = VERTEX_POINT ( 'NONE', #197 ) ;
#11 = APPROVAL ( #32, 'UNSPECIFIED' ) ;
#12 = CC_DESIGN_PERSON_AND_ORGANIZATION_ASSIGNMENT ( #142, #201, ( #58 ) ) ;
#13 = ORIENTED_EDGE ( 'NONE', *, *, #98, .T. ) ;
#14 = ORIENTED_EDGE ( 'NONE', *, *, #215, .F. ) ;
#15 = CC_DESIGN_PERSON_AND_ORGANIZATION_ASSIGNMENT ( #31, #108, ( #85 ) ) ;
#16 = ORIENTED_EDGE ( 'NONE', *, *, #181, .F. ) ;
#17 = ADVANCED_FACE ( 'NONE', ( #54 ), #168, .T. ) ;
#18 = CIRCLE ( 'NONE', #111, 2.778999999999999471 ) ;
#19 = EDGE_LOOP ( 'NONE', ( #203 ) ) ;
#20 = DIRECTION ( 'NONE',  ( -3.491481338843133355E-15, -5.300047110206150985E-16, -1.000000000000000000 ) ) ;
#21 = DIRECTION ( 'NONE',  ( -3.491481338843133355E-15, 9.031770143711729009E-17, -1.000000000000000000 ) ) ;
#22 = DIRECTION ( 'NONE',  ( -3.491481338843133355E-15, 9.031770143711729009E-17, -1.000000000000000000 ) ) ;
#23 = CLOSED_SHELL ( 'NONE', ( #39, #129, #118, #84, #152 ) ) ;
#24 = CYLINDRICAL_SURFACE ( 'NONE', #45, 1.999999999999993561 ) ;
#25 = CARTESIAN_POINT ( 'NONE',  ( 1.396592535537253145E-15, 2.778999999999998582, 0.3999999999999999667 ) ) ;
#26 = VERTEX_POINT ( 'NONE', #220 ) ;
#27 = AXIS2_PLACEMENT_3D ( 'NONE', #120, #157, #47 ) ;
#28 = LOCAL_TIME ( 11, 4, 2.000000000000000000, #179 ) ;
#29 = ADVANCED_BREP_SHAPE_REPRESENTATION ( '321459', ( #163, #162, #177 ), #119 ) ;
#30 = PERSON_AND_ORGANIZATION ( #41, #182 ) ;
#31 = PERSON_AND_ORGANIZATION ( #41, #182 ) ;
#32 = APPROVAL_STATUS ( 'not_yet_approved' ) ;
#33 = AXIS2_PLACEMENT_3D ( 'NONE', #68, #134, #42 ) ;
#34 = CC_DESIGN_APPROVAL ( #11, ( #58 ) ) ;
#35 = CALENDAR_DATE ( 2021, 26, 11 ) ;
#36 = ORIENTED_EDGE ( 'NONE', *, *, #67, .T. ) ;
#37 = ORIENTED_EDGE ( 'NONE', *, *, #196, .T. ) ;
#38 = PERSON_AND_ORGANIZATION ( #41, #182 ) ;
#39 = ADVANCED_FACE ( 'NONE', ( #117 ), #148, .T. ) ;
#40 = DIRECTION ( 'NONE',  ( -3.491481338843133355E-15, 9.031770143711729009E-17, -1.000000000000000000 ) ) ;
#41 = PERSON ( 'UNSPECIFIED', 'UNSPECIFIED', 'UNSPECIFIED', ('UNSPECIFIED'), ('UNSPECIFIED'), ('UNSPECIFIED') ) ;
#42 = DIRECTION ( 'NONE',  ( 0.0000000000000000000, 1.000000000000000000, 0.0000000000000000000 ) ) ;
#43 = DIRECTION ( 'NONE',  ( -3.491481338843133355E-15, 9.031770143711729009E-17, -1.000000000000000000 ) ) ;
#44 = CARTESIAN_POINT ( 'NONE',  ( 0.0000000000000000000, 0.0000000000000000000, 0.0000000000000000000 ) ) ;
#45 = AXIS2_PLACEMENT_3D ( 'NONE', #156, #43, #227 ) ;
#46 = LOCAL_TIME ( 11, 4, 2.000000000000000000, #56 ) ;
#47 = DIRECTION ( 'NONE',  ( 0.0000000000000000000, 1.000000000000000000, 0.0000000000000000000 ) ) ;
#48 = PERSON_AND_ORGANIZATION_ROLE ( 'classification_officer' ) ;
#49 = VERTEX_POINT ( 'NONE', #198 ) ;
#50 = CALENDAR_DATE ( 2021, 26, 11 ) ;
#51 = AXIS2_PLACEMENT_3D ( 'NONE', #211, #79, #2 ) ;
#52 = APPROVAL_ROLE ( '' ) ;
#53 = CALENDAR_DATE ( 2021, 26, 11 ) ;
#54 = FACE_OUTER_BOUND ( 'NONE', #78, .T. ) ;
#55 = ORIENTED_EDGE ( 'NONE', *, *, #218, .F. ) ;
#56 = COORDINATED_UNIVERSAL_TIME_OFFSET ( 1, 0, .AHEAD. ) ;
#57 = EDGE_LOOP ( 'NONE', ( #96 ) ) ;
#58 = PRODUCT_DEFINITION ( 'UNKNOWN', '', #85, #205 ) ;
#59 = ADVANCED_FACE ( 'NONE', ( #242, #228 ), #232, .T. ) ;
#60 = FACE_OUTER_BOUND ( 'NONE', #207, .T. ) ;
#61 = APPROVAL_PERSON_ORGANIZATION ( #183, #4, #72 ) ;
#62 = AXIS2_PLACEMENT_3D ( 'NONE', #208, #40, #191 ) ;
#63 = CARTESIAN_POINT ( 'NONE',  ( 4.715188800693029865E-30, 7.157627480108463826E-31, 1.350483746894479956E-15 ) ) ;
#64 = CARTESIAN_POINT ( 'NONE',  ( -2.357594400346514932E-30, 2.548059892324148645, -6.752418734472399779E-16 ) ) ;
#65 = APPROVAL ( #239, 'UNSPECIFIED' ) ;
#66 = CARTESIAN_POINT ( 'NONE',  ( 4.414137002603552236E-14, 6.700632709798396819E-15, 12.64259084960806767 ) ) ;
#67 = EDGE_CURVE ( 'NONE', #122, #122, #102, .T. ) ;
#68 = CARTESIAN_POINT ( 'NONE',  ( 2.793185071074506684E-13, -7.225416114969383207E-15, 80.00000000000000000 ) ) ;
#69 = CLOSED_SHELL ( 'NONE', ( #17, #184, #59, #235 ) ) ;
#70 = CALENDAR_DATE ( 2021, 26, 11 ) ;
#71 =( NAMED_UNIT ( * ) SI_UNIT ( $, .STERADIAN. ) SOLID_ANGLE_UNIT ( ) );
#72 = APPROVAL_ROLE ( '' ) ;
#73 = AXIS2_PLACEMENT_3D ( 'NONE', #190, #97, #171 ) ;
#74 = APPLICATION_PROTOCOL_DEFINITION ( 'international standard', 'config_control_design', 1994, #126 ) ;
#75 = CC_DESIGN_PERSON_AND_ORGANIZATION_ASSIGNMENT ( #180, #48, ( #209 ) ) ;
#76 = EDGE_LOOP ( 'NONE', ( #95 ) ) ;
#77 = APPROVAL_DATE_TIME ( #186, #65 ) ;
#78 = EDGE_LOOP ( 'NONE', ( #14 ) ) ;
#79 = DIRECTION ( 'NONE',  ( -3.491481338843133355E-15, 9.031770143711729009E-17, -1.000000000000000000 ) ) ;
#80 = DIRECTION ( 'NONE',  ( -3.491481338843133355E-15, -5.300047110206150985E-16, -1.000000000000000000 ) ) ;
#81 = DIRECTION ( 'NONE',  ( -1.850501558027425166E-30, 1.000000000000000000, -5.300047110206150985E-16 ) ) ;
#82 = DIRECTION ( 'NONE',  ( 0.0000000000000000000, 1.000000000000000000, 0.0000000000000000000 ) ) ;
#83 = DIRECTION ( 'NONE',  ( -1.871180586486340295E-30, 1.000000000000000000, -5.266905120026742698E-16 ) ) ;
#84 = ADVANCED_FACE ( 'NONE', ( #243, #5 ), #236, .T. ) ;
#85 = PRODUCT_DEFINITION_FORMATION_WITH_SPECIFIED_SOURCE ( 'ANY', '', #153, .NOT_KNOWN. ) ;
#86 = APPROVAL_ROLE ( '' ) ;
#87 = CARTESIAN_POINT ( 'NONE',  ( 2.793185071074506684E-13, 1.599999999999987876, 80.00000000000000000 ) ) ;
#88 = DATE_TIME_ROLE ( 'creation_date' ) ;
#89 = AXIS2_PLACEMENT_3D ( 'NONE', #63, #173, #123 ) ;
#90 = PERSON_AND_ORGANIZATION_ROLE ( 'design_owner' ) ;
#91 = APPROVAL_DATE_TIME ( #141, #4 ) ;
#92 = EDGE_LOOP ( 'NONE', ( #37 ) ) ;
#93 = APPROVAL_PERSON_ORGANIZATION ( #166, #11, #86 ) ;
#94 = LOCAL_TIME ( 11, 4, 2.000000000000000000, #107 ) ;
#95 = ORIENTED_EDGE ( 'NONE', *, *, #67, .F. ) ;
#96 = ORIENTED_EDGE ( 'NONE', *, *, #218, .T. ) ;
#97 = DIRECTION ( 'NONE',  ( 3.491481338843133355E-15, -9.031770143711729009E-17, 1.000000000000000000 ) ) ;
#98 = EDGE_CURVE ( 'NONE', #135, #135, #165, .T. ) ;
#99 = APPLICATION_CONTEXT ( 'configuration controlled 3d designs of mechanical parts and assemblies' ) ;
#100 = FACE_OUTER_BOUND ( 'NONE', #19, .T. ) ;
#101 = DIRECTION ( 'NONE',  ( 3.491481338843133355E-15, 5.300047110206150985E-16, 1.000000000000000000 ) ) ;
#102 = CIRCLE ( 'NONE', #89, 2.548059892324148645 ) ;
#103 = FACE_OUTER_BOUND ( 'NONE', #189, .T. ) ;
#104 = CARTESIAN_POINT ( 'NONE',  ( 4.414137002603551605E-14, -1.141849745746532456E-15, 12.64259084960806589 ) ) ;
#105 = AXIS2_PLACEMENT_3D ( 'NONE', #131, #206, #187 ) ;
#106 = CC_DESIGN_SECURITY_CLASSIFICATION ( #209, ( #85 ) ) ;
#107 = COORDINATED_UNIVERSAL_TIME_OFFSET ( 1, 0, .AHEAD. ) ;
#108 = PERSON_AND_ORGANIZATION_ROLE ( 'design_supplier' ) ;
#109 = APPLICATION_PROTOCOL_DEFINITION ( 'international standard', 'config_control_design', 1994, #99 ) ;
#110 = EDGE_CURVE ( 'NONE', #195, #195, #149, .T. ) ;
#111 = AXIS2_PLACEMENT_3D ( 'NONE', #104, #176, #82 ) ;
#112 = CARTESIAN_POINT ( 'NONE',  ( 0.0000000000000000000, 0.0000000000000000000, 0.0000000000000000000 ) ) ;
#113 = EDGE_LOOP ( 'NONE', ( #130 ) ) ;
#114 = EDGE_LOOP ( 'NONE', ( #16 ) ) ;
#115 = UNCERTAINTY_MEASURE_WITH_UNIT (LENGTH_MEASURE( 1.000000000000000082E-05 ), #231, 'distance_accuracy_value', 'NONE');
#116 = ORIENTED_EDGE ( 'NONE', *, *, #98, .F. ) ;
#117 = FACE_OUTER_BOUND ( 'NONE', #169, .T. ) ;
#118 = ADVANCED_FACE ( 'NONE', ( #212, #174 ), #24, .T. ) ;
#119 =( GEOMETRIC_REPRESENTATION_CONTEXT ( 3 ) GLOBAL_UNCERTAINTY_ASSIGNED_CONTEXT ( ( #115 ) ) GLOBAL_UNIT_ASSIGNED_CONTEXT ( ( #231, #7, #71 ) ) REPRESENTATION_CONTEXT ( 'NONE', 'WORKASPACE' ) );
#120 = CARTESIAN_POINT ( 'NONE',  ( 2.779219145719134403E-13, -7.189289034394536528E-15, 79.60000000000000853 ) ) ;
#121 = PRODUCT_DEFINITION_SHAPE ( 'NONE', 'NONE',  #58 ) ;
#122 = VERTEX_POINT ( 'NONE', #192 ) ;
#123 = DIRECTION ( 'NONE',  ( -1.850501558027425166E-30, 1.000000000000000000, -5.300047110206150985E-16 ) ) ;
#124 = CARTESIAN_POINT ( 'NONE',  ( 4.885231259955590439E-14, 1.999999999999990452, 13.99185842870425134 ) ) ;
#125 = FACE_OUTER_BOUND ( 'NONE', #238, .T. ) ;
#126 = APPLICATION_CONTEXT ( 'configuration controlled 3d designs of mechanical parts and assemblies' ) ;
#127 = LOCAL_TIME ( 11, 4, 2.000000000000000000, #202 ) ;
#128 = CONICAL_SURFACE ( 'NONE', #27, 1.999999999999995337, 0.7853981633974516097 ) ;
#129 = ADVANCED_FACE ( 'NONE', ( #216, #103 ), #128, .T. ) ;
#130 = ORIENTED_EDGE ( 'NONE', *, *, #110, .F. ) ;
#131 = CARTESIAN_POINT ( 'NONE',  ( 4.414137002603552867E-14, 6.700632709798397608E-15, 12.64259084960806945 ) ) ;
#132 = FACE_OUTER_BOUND ( 'NONE', #113, .T. ) ;
#133 = AXIS2_PLACEMENT_3D ( 'NONE', #193, #21, #194 ) ;
#134 = DIRECTION ( 'NONE',  ( -3.491481338843133355E-15, 9.031770143711729009E-17, -1.000000000000000000 ) ) ;
#135 = VERTEX_POINT ( 'NONE', #124 ) ;
#136 = DIRECTION ( 'NONE',  ( -3.491481338843133355E-15, -5.300047110206150985E-16, -1.000000000000000000 ) ) ;
#137 = CIRCLE ( 'NONE', #33, 1.599999999999994982 ) ;
#138 = CARTESIAN_POINT ( 'NONE',  ( 4.715188800693029865E-30, 7.157627480108463826E-31, 1.350483746894479956E-15 ) ) ;
#139 = DIRECTION ( 'NONE',  ( 0.0000000000000000000, 0.0000000000000000000, 1.000000000000000000 ) ) ;
#140 = MECHANICAL_CONTEXT ( 'NONE', #99, 'mechanical' ) ;
#141 = DATE_AND_TIME ( #70, #6 ) ;
#142 = PERSON_AND_ORGANIZATION ( #41, #182 ) ;
#143 = CALENDAR_DATE ( 2021, 26, 11 ) ;
#144 = AXIS2_PLACEMENT_3D ( 'NONE', #138, #101, #3 ) ;
#145 = CC_DESIGN_APPROVAL ( #65, ( #209 ) ) ;
#146 = EDGE_LOOP ( 'NONE', ( #116 ) ) ;
#147 = CC_DESIGN_DATE_AND_TIME_ASSIGNMENT ( #8, #88, ( #58 ) ) ;
#148 = PLANE ( 'NONE',  #73 ) ;
#149 = CIRCLE ( 'NONE', #155, 2.778999999999998582 ) ;
#150 = CC_DESIGN_PERSON_AND_ORGANIZATION_ASSIGNMENT ( #199, #230, ( #85 ) ) ;
#151 = ORIENTED_EDGE ( 'NONE', *, *, #196, .F. ) ;
#152 = ADVANCED_FACE ( 'NONE', ( #100 ), #160, .T. ) ;
#153 = PRODUCT ( '321459', '321459', '', ( #140 ) ) ;
#154 = CYLINDRICAL_SURFACE ( 'NONE', #240, 2.778999999999995030 ) ;
#155 = AXIS2_PLACEMENT_3D ( 'NONE', #175, #20, #83 ) ;
#156 = CARTESIAN_POINT ( 'NONE',  ( 0.0000000000000000000, 0.0000000000000000000, 0.0000000000000000000 ) ) ;
#157 = DIRECTION ( 'NONE',  ( -3.491481338843133355E-15, 9.031770143711729009E-17, -1.000000000000000000 ) ) ;
#158 = DIRECTION ( 'NONE',  ( -3.491481338843133355E-15, -5.300047110206150985E-16, -1.000000000000000000 ) ) ;
#159 = CIRCLE ( 'NONE', #214, 2.778999999999991477 ) ;
#160 = PLANE ( 'NONE',  #9 ) ;
#161 = COORDINATED_UNIVERSAL_TIME_OFFSET ( 1, 0, .AHEAD. ) ;
#162 = MANIFOLD_SOLID_BREP ( 'Corps-Déplacer/Copier1[2]', #69 ) ;
#163 = MANIFOLD_SOLID_BREP ( 'Corps-Déplacer/Copier1[1]', #23 ) ;
#164 = DATE_AND_TIME ( #50, #94 ) ;
#165 = CIRCLE ( 'NONE', #51, 1.999999999999991784 ) ;
#166 = PERSON_AND_ORGANIZATION ( #41, #182 ) ;
#167 = CIRCLE ( 'NONE', #62, 1.999999999999995337 ) ;
#168 = PLANE ( 'NONE',  #105 ) ;
#169 = EDGE_LOOP ( 'NONE', ( #55 ) ) ;
#170 = AXIS2_PLACEMENT_3D ( 'NONE', #64, #136, #213 ) ;
#171 = DIRECTION ( 'NONE',  ( -3.153425691349006731E-31, -1.000000000000000000, -9.031770143711729009E-17 ) ) ;
#172 = CARTESIAN_POINT ( 'NONE',  ( 4.414137002603552867E-14, 2.778999999999998138, 12.64259084960806945 ) ) ;
#173 = DIRECTION ( 'NONE',  ( -3.491481338843133355E-15, -5.300047110206150985E-16, -1.000000000000000000 ) ) ;
#174 = FACE_OUTER_BOUND ( 'NONE', #146, .T. ) ;
#175 = CARTESIAN_POINT ( 'NONE',  ( 1.396592535537258272E-15, 2.120018844082467888E-16, 0.4000000000000014100 ) ) ;
#176 = DIRECTION ( 'NONE',  ( -3.491481338843133355E-15, 9.031770143711729009E-17, -1.000000000000000000 ) ) ;
#177 = AXIS2_PLACEMENT_3D ( 'NONE', #112, #139, #178 ) ;
#178 = DIRECTION ( 'NONE',  ( 1.000000000000000000, 0.0000000000000000000, 0.0000000000000000000 ) ) ;
#179 = COORDINATED_UNIVERSAL_TIME_OFFSET ( 1, 0, .AHEAD. ) ;
#180 = PERSON_AND_ORGANIZATION ( #41, #182 ) ;
#181 = EDGE_CURVE ( 'NONE', #49, #49, #18, .T. ) ;
#182 = ORGANIZATION ( 'UNSPECIFIED', 'UNSPECIFIED', '' ) ;
#183 = PERSON_AND_ORGANIZATION ( #41, #182 ) ;
#184 = ADVANCED_FACE ( 'NONE', ( #60, #132 ), #154, .T. ) ;
#185 = EDGE_LOOP ( 'NONE', ( #13 ) ) ;
#186 = DATE_AND_TIME ( #143, #46 ) ;
#187 = DIRECTION ( 'NONE',  ( 1.850501558027425166E-30, -1.000000000000000000, 5.300047110206150985E-16 ) ) ;
#188 = CC_DESIGN_PERSON_AND_ORGANIZATION_ASSIGNMENT ( #30, #90, ( #153 ) ) ;
#189 = EDGE_LOOP ( 'NONE', ( #151 ) ) ;
#190 = CARTESIAN_POINT ( 'NONE',  ( 2.793185071074506684E-13, -7.225416114969383207E-15, 80.00000000000000000 ) ) ;
#191 = DIRECTION ( 'NONE',  ( 0.0000000000000000000, 1.000000000000000000, 0.0000000000000000000 ) ) ;
#192 = CARTESIAN_POINT ( 'NONE',  ( 0.0000000000000000000, 2.548059892324148645, 0.0000000000000000000 ) ) ;
#193 = CARTESIAN_POINT ( 'NONE',  ( 4.414137002603551605E-14, -1.141849745746532456E-15, 12.64259084960806589 ) ) ;
#194 = DIRECTION ( 'NONE',  ( 0.0000000000000000000, 1.000000000000000000, 0.0000000000000000000 ) ) ;
#195 = VERTEX_POINT ( 'NONE', #25 ) ;
#196 = EDGE_CURVE ( 'NONE', #26, #26, #167, .T. ) ;
#197 = CARTESIAN_POINT ( 'NONE',  ( 4.414137002603551605E-14, 2.778999999999998138, 12.64259084960806589 ) ) ;
#198 = CARTESIAN_POINT ( 'NONE',  ( 4.414137002603551605E-14, 2.778999999999998138, 12.64259084960806589 ) ) ;
#199 = PERSON_AND_ORGANIZATION ( #41, #182 ) ;
#200 = PRODUCT_RELATED_PRODUCT_CATEGORY ( 'detail', '', ( #153 ) ) ;
#201 = PERSON_AND_ORGANIZATION_ROLE ( 'creator' ) ;
#202 = COORDINATED_UNIVERSAL_TIME_OFFSET ( 1, 0, .AHEAD. ) ;
#203 = ORIENTED_EDGE ( 'NONE', *, *, #181, .T. ) ;
#204 = DATE_TIME_ROLE ( 'classification_date' ) ;
#205 = DESIGN_CONTEXT ( 'detailed design', #126, 'design' ) ;
#206 = DIRECTION ( 'NONE',  ( 3.491481338843133355E-15, 5.300047110206150985E-16, 1.000000000000000000 ) ) ;
#207 = EDGE_LOOP ( 'NONE', ( #223 ) ) ;
#208 = CARTESIAN_POINT ( 'NONE',  ( 2.779219145719134403E-13, -7.189289034394536528E-15, 79.60000000000000853 ) ) ;
#209 = SECURITY_CLASSIFICATION ( '', '', #217 ) ;
#210 = APPROVAL_PERSON_ORGANIZATION ( #38, #65, #52 ) ;
#211 = CARTESIAN_POINT ( 'NONE',  ( 4.885231259955590439E-14, -1.263712492114123682E-15, 13.99185842870425134 ) ) ;
#212 = FACE_OUTER_BOUND ( 'NONE', #92, .T. ) ;
#213 = DIRECTION ( 'NONE',  ( -1.850501558027425166E-30, 1.000000000000000000, -5.300047110206150985E-16 ) ) ;
#214 = AXIS2_PLACEMENT_3D ( 'NONE', #66, #80, #224 ) ;
#215 = EDGE_CURVE ( 'NONE', #10, #10, #159, .T. ) ;
#216 = FACE_BOUND ( 'NONE', #57, .T. ) ;
#217 = SECURITY_CLASSIFICATION_LEVEL ( 'unclassified' ) ;
#218 = EDGE_CURVE ( 'NONE', #229, #229, #137, .T. ) ;
#219 = CC_DESIGN_DATE_AND_TIME_ASSIGNMENT ( #237, #204, ( #209 ) ) ;
#220 = CARTESIAN_POINT ( 'NONE',  ( 2.779219145719134403E-13, 1.999999999999988010, 79.60000000000000853 ) ) ;
#221 = ORIENTED_EDGE ( 'NONE', *, *, #110, .T. ) ;
#222 = SHAPE_DEFINITION_REPRESENTATION ( #121, #29 ) ;
#223 = ORIENTED_EDGE ( 'NONE', *, *, #215, .T. ) ;
#224 = DIRECTION ( 'NONE',  ( -2.217695509909742381E-30, 1.000000000000000000, -6.242257920031711191E-16 ) ) ;
#225 = CC_DESIGN_APPROVAL ( #4, ( #85 ) ) ;
#226 = PLANE ( 'NONE',  #170 ) ;
#227 = DIRECTION ( 'NONE',  ( 3.153425691349006731E-31, 1.000000000000000000, 9.031770143711729009E-17 ) ) ;
#228 = FACE_BOUND ( 'NONE', #76, .T. ) ;
#229 = VERTEX_POINT ( 'NONE', #87 ) ;
#230 = PERSON_AND_ORGANIZATION_ROLE ( 'creator' ) ;
#231 =( LENGTH_UNIT ( ) NAMED_UNIT ( * ) SI_UNIT ( .MILLI., .METRE. ) );
#232 = CONICAL_SURFACE ( 'NONE', #144, 2.548059892324148645, 0.5235987755982978165 ) ;
#233 = APPROVAL_STATUS ( 'not_yet_approved' ) ;
#234 = APPROVAL_DATE_TIME ( #164, #11 ) ;
#235 = ADVANCED_FACE ( 'NONE', ( #125 ), #226, .T. ) ;
#236 = CONICAL_SURFACE ( 'NONE', #133, 2.778999999999999471, 0.5235987755982934866 ) ;
#237 = DATE_AND_TIME ( #53, #127 ) ;
#238 = EDGE_LOOP ( 'NONE', ( #36 ) ) ;
#239 = APPROVAL_STATUS ( 'not_yet_approved' ) ;
#240 = AXIS2_PLACEMENT_3D ( 'NONE', #44, #158, #81 ) ;
#241 = EDGE_LOOP ( 'NONE', ( #221 ) ) ;
#242 = FACE_OUTER_BOUND ( 'NONE', #241, .T. ) ;
#243 = FACE_BOUND ( 'NONE', #185, .T. ) ;
ENDSEC;
END-ISO-10303-21;
