ISO-10303-21;
HEADER;
FILE_DESCRIPTION (( 'STEP AP203' ),
    '1' );
FILE_NAME ('321458.step',
    '2021-11-26T10:04:01',
    ( '' ),
    ( '' ),
    'SwSTEP 2.0',
    'SolidWorks 2019',
    '' );
FILE_SCHEMA (( 'CONFIG_CONTROL_DESIGN' ));
ENDSEC;

DATA;
#1 = DATE_TIME_ROLE ( 'classification_date' ) ;
#2 = PERSON_AND_ORGANIZATION_ROLE ( 'creator' ) ;
#3 = ORIENTED_EDGE ( 'NONE', *, *, #58, .T. ) ;
#4 = CARTESIAN_POINT ( 'NONE',  ( 4.417160714139829109E-14, -1.142631919985091949E-15, 12.65125110364590988 ) ) ;
#5 = CARTESIAN_POINT ( 'NONE',  ( 2.793185071074506684E-13, -7.225416114969383207E-15, 80.00000000000000000 ) ) ;
#6 = DIRECTION ( 'NONE',  ( 1.848649427300838242E-30, -1.000000000000000000, 5.294742396971736819E-16 ) ) ;
#7 = DIRECTION ( 'NONE',  ( 3.153425691349006731E-31, 1.000000000000000000, 9.031770143711729009E-17 ) ) ;
#8 = CARTESIAN_POINT ( 'NONE',  ( -2.350613106768384216E-30, 2.543059892324148752, -6.732423514963525249E-16 ) ) ;
#9 = CALENDAR_DATE ( 2021, 26, 11 ) ;
#10 = PERSON_AND_ORGANIZATION_ROLE ( 'design_owner' ) ;
#11 = AXIS2_PLACEMENT_3D ( 'NONE', #8, #65, #132 ) ;
#12 = COORDINATED_UNIVERSAL_TIME_OFFSET ( 1, 0, .AHEAD. ) ;
#13 = CC_DESIGN_PERSON_AND_ORGANIZATION_ASSIGNMENT ( #31, #106, ( #97 ) ) ;
#14 = ADVANCED_BREP_SHAPE_REPRESENTATION ( '321458', ( #75, #242, #187 ), #139 ) ;
#15 = COORDINATED_UNIVERSAL_TIME_OFFSET ( 1, 0, .AHEAD. ) ;
#16 = EDGE_LOOP ( 'NONE', ( #164 ) ) ;
#17 = AXIS2_PLACEMENT_3D ( 'NONE', #236, #193, #126 ) ;
#18 = EDGE_CURVE ( 'NONE', #85, #85, #77, .T. ) ;
#19 = APPROVAL_STATUS ( 'not_yet_approved' ) ;
#20 = EDGE_LOOP ( 'NONE', ( #183 ) ) ;
#21 = CARTESIAN_POINT ( 'NONE',  ( 2.779219145719134403E-13, -7.189289034394536528E-15, 79.60000000000000853 ) ) ;
#22 = DIRECTION ( 'NONE',  ( -3.491481338843133355E-15, 9.031770143711729009E-17, -1.000000000000000000 ) ) ;
#23 = PLANE ( 'NONE',  #11 ) ;
#24 = PLANE ( 'NONE',  #217 ) ;
#25 = APPROVAL ( #105, 'UNSPECIFIED' ) ;
#26 = CIRCLE ( 'NONE', #84, 1.999999999999991784 ) ;
#27 = FACE_OUTER_BOUND ( 'NONE', #35, .T. ) ;
#28 = CARTESIAN_POINT ( 'NONE',  ( 2.779219145719134403E-13, 1.999999999999988010, 79.60000000000000853 ) ) ;
#29 = ADVANCED_FACE ( 'NONE', ( #231, #63 ), #40, .T. ) ;
#30 = APPLICATION_PROTOCOL_DEFINITION ( 'international standard', 'config_control_design', 1994, #232 ) ;
#31 = PERSON_AND_ORGANIZATION ( #90, #81 ) ;
#32 = EDGE_CURVE ( 'NONE', #179, #179, #69, .T. ) ;
#33 = EDGE_LOOP ( 'NONE', ( #206 ) ) ;
#34 = ADVANCED_FACE ( 'NONE', ( #27 ), #24, .T. ) ;
#35 = EDGE_LOOP ( 'NONE', ( #123 ) ) ;
#36 = CLOSED_SHELL ( 'NONE', ( #111, #71, #29, #151, #104 ) ) ;
#37 = CONICAL_SURFACE ( 'NONE', #61, 2.773999999999999577, 0.5235987755982932645 ) ;
#38 = APPROVAL_ROLE ( '' ) ;
#39 = EDGE_LOOP ( 'NONE', ( #41 ) ) ;
#40 = CYLINDRICAL_SURFACE ( 'NONE', #145, 1.999999999999993561 ) ;
#41 = ORIENTED_EDGE ( 'NONE', *, *, #202, .T. ) ;
#42 = DIRECTION ( 'NONE',  ( 0.0000000000000000000, 1.000000000000000000, 0.0000000000000000000 ) ) ;
#43 = FACE_OUTER_BOUND ( 'NONE', #53, .T. ) ;
#44 = AXIS2_PLACEMENT_3D ( 'NONE', #194, #82, #45 ) ;
#45 = DIRECTION ( 'NONE',  ( 1.848649427300837891E-30, -1.000000000000000000, 5.294742396971736819E-16 ) ) ;
#46 = APPLICATION_PROTOCOL_DEFINITION ( 'international standard', 'config_control_design', 1994, #134 ) ;
#47 = CARTESIAN_POINT ( 'NONE',  ( 4.417160714139829109E-14, 2.773999999999998245, 12.65125110364590988 ) ) ;
#48 = AXIS2_PLACEMENT_3D ( 'NONE', #199, #198, #178 ) ;
#49 = VERTEX_POINT ( 'NONE', #157 ) ;
#50 =( NAMED_UNIT ( * ) SI_UNIT ( $, .STERADIAN. ) SOLID_ANGLE_UNIT ( ) );
#51 = LOCAL_TIME ( 11, 4, 1.000000000000000000, #12 ) ;
#52 = ORIENTED_EDGE ( 'NONE', *, *, #182, .F. ) ;
#53 = EDGE_LOOP ( 'NONE', ( #55 ) ) ;
#54 = PERSON_AND_ORGANIZATION ( #90, #81 ) ;
#55 = ORIENTED_EDGE ( 'NONE', *, *, #18, .T. ) ;
#56 = PRODUCT_RELATED_PRODUCT_CATEGORY ( 'detail', '', ( #118 ) ) ;
#57 = EDGE_LOOP ( 'NONE', ( #93 ) ) ;
#58 = EDGE_CURVE ( 'NONE', #223, #223, #108, .T. ) ;
#59 = FACE_OUTER_BOUND ( 'NONE', #144, .T. ) ;
#60 = CARTESIAN_POINT ( 'NONE',  ( 4.417160714139829740E-14, 6.698511559320949097E-15, 12.65125110364591166 ) ) ;
#61 = AXIS2_PLACEMENT_3D ( 'NONE', #192, #22, #196 ) ;
#62 = ADVANCED_FACE ( 'NONE', ( #174, #80 ), #66, .T. ) ;
#63 = FACE_OUTER_BOUND ( 'NONE', #16, .T. ) ;
#64 = DIRECTION ( 'NONE',  ( -3.491481338843133355E-15, 9.031770143711729009E-17, -1.000000000000000000 ) ) ;
#65 = DIRECTION ( 'NONE',  ( -3.491481338843133355E-15, -5.294742396971736819E-16, -1.000000000000000000 ) ) ;
#66 = CONICAL_SURFACE ( 'NONE', #44, 2.543059892324148752, 0.5235987755982978165 ) ;
#67 = LOCAL_TIME ( 11, 4, 1.000000000000000000, #15 ) ;
#68 = VERTEX_POINT ( 'NONE', #158 ) ;
#69 = CIRCLE ( 'NONE', #209, 2.543059892324148752 ) ;
#70 = LOCAL_TIME ( 11, 4, 1.000000000000000000, #205 ) ;
#71 = ADVANCED_FACE ( 'NONE', ( #212, #128 ), #180, .T. ) ;
#72 = MECHANICAL_CONTEXT ( 'NONE', #232, 'mechanical' ) ;
#73 =( LENGTH_UNIT ( ) NAMED_UNIT ( * ) SI_UNIT ( .MILLI., .METRE. ) );
#74 = CALENDAR_DATE ( 2021, 26, 11 ) ;
#75 = MANIFOLD_SOLID_BREP ( 'Corps-Déplacer/Copier1[1]', #36 ) ;
#76 = ORIENTED_EDGE ( 'NONE', *, *, #241, .F. ) ;
#77 = CIRCLE ( 'NONE', #171, 2.773999999999991584 ) ;
#78 = DIRECTION ( 'NONE',  ( 3.153425691349006731E-31, 1.000000000000000000, 9.031770143711729009E-17 ) ) ;
#79 = DIRECTION ( 'NONE',  ( 0.0000000000000000000, 1.000000000000000000, 0.0000000000000000000 ) ) ;
#80 = FACE_BOUND ( 'NONE', #207, .T. ) ;
#81 = ORGANIZATION ( 'UNSPECIFIED', 'UNSPECIFIED', '' ) ;
#82 = DIRECTION ( 'NONE',  ( 3.491481338843133355E-15, 5.294742396971736819E-16, 1.000000000000000000 ) ) ;
#83 = DATE_AND_TIME ( #9, #51 ) ;
#84 = AXIS2_PLACEMENT_3D ( 'NONE', #239, #219, #160 ) ;
#85 = VERTEX_POINT ( 'NONE', #47 ) ;
#86 = PERSON_AND_ORGANIZATION ( #90, #81 ) ;
#87 = CALENDAR_DATE ( 2021, 26, 11 ) ;
#88 = CARTESIAN_POINT ( 'NONE',  ( 4.417160714139829109E-14, 2.773999999999998245, 12.65125110364590988 ) ) ;
#89 = APPROVAL ( #19, 'UNSPECIFIED' ) ;
#90 = PERSON ( 'UNSPECIFIED', 'UNSPECIFIED', 'UNSPECIFIED', ('UNSPECIFIED'), ('UNSPECIFIED'), ('UNSPECIFIED') ) ;
#91 = DATE_AND_TIME ( #208, #70 ) ;
#92 = ORIENTED_EDGE ( 'NONE', *, *, #32, .T. ) ;
#93 = ORIENTED_EDGE ( 'NONE', *, *, #190, .T. ) ;
#94 = PERSON_AND_ORGANIZATION_ROLE ( 'design_supplier' ) ;
#95 = CC_DESIGN_APPROVAL ( #89, ( #166 ) ) ;
#96 = DIRECTION ( 'NONE',  ( -3.491481338843133355E-15, 9.031770143711729009E-17, -1.000000000000000000 ) ) ;
#97 = PRODUCT_DEFINITION ( 'UNKNOWN', '', #234, #156 ) ;
#98 = FACE_OUTER_BOUND ( 'NONE', #189, .T. ) ;
#99 = CARTESIAN_POINT ( 'NONE',  ( 0.0000000000000000000, 0.0000000000000000000, 0.0000000000000000000 ) ) ;
#100 = CC_DESIGN_DATE_AND_TIME_ASSIGNMENT ( #91, #1, ( #166 ) ) ;
#101 = FACE_OUTER_BOUND ( 'NONE', #141, .T. ) ;
#102 = DIRECTION ( 'NONE',  ( 0.0000000000000000000, 0.0000000000000000000, 1.000000000000000000 ) ) ;
#103 = CARTESIAN_POINT ( 'NONE',  ( 2.779219145719134403E-13, -7.189289034394536528E-15, 79.60000000000000853 ) ) ;
#104 = ADVANCED_FACE ( 'NONE', ( #101 ), #173, .T. ) ;
#105 = APPROVAL_STATUS ( 'not_yet_approved' ) ;
#106 = PERSON_AND_ORGANIZATION_ROLE ( 'creator' ) ;
#107 = CC_DESIGN_PERSON_AND_ORGANIZATION_ASSIGNMENT ( #163, #94, ( #234 ) ) ;
#108 = CIRCLE ( 'NONE', #131, 2.773999999999999577 ) ;
#109 = CC_DESIGN_APPROVAL ( #25, ( #97 ) ) ;
#110 = SECURITY_CLASSIFICATION_LEVEL ( 'unclassified' ) ;
#111 = ADVANCED_FACE ( 'NONE', ( #233 ), #152, .T. ) ;
#112 = COORDINATED_UNIVERSAL_TIME_OFFSET ( 1, 0, .AHEAD. ) ;
#113 = CYLINDRICAL_SURFACE ( 'NONE', #17, 2.773999999999995136 ) ;
#114 = EDGE_LOOP ( 'NONE', ( #211 ) ) ;
#115 = DIRECTION ( 'NONE',  ( 3.491481338843133355E-15, 5.294742396971736819E-16, 1.000000000000000000 ) ) ;
#116 = FACE_OUTER_BOUND ( 'NONE', #125, .T. ) ;
#117 = LOCAL_TIME ( 11, 4, 1.000000000000000000, #112 ) ;
#118 = PRODUCT ( '321458', '321458', '', ( #72 ) ) ;
#119 = DATE_AND_TIME ( #87, #172 ) ;
#120 = APPROVAL_DATE_TIME ( #119, #25 ) ;
#121 = SHAPE_DEFINITION_REPRESENTATION ( #195, #14 ) ;
#122 = CC_DESIGN_SECURITY_CLASSIFICATION ( #166, ( #234 ) ) ;
#123 = ORIENTED_EDGE ( 'NONE', *, *, #18, .F. ) ;
#124 = CC_DESIGN_PERSON_AND_ORGANIZATION_ASSIGNMENT ( #188, #2, ( #234 ) ) ;
#125 = EDGE_LOOP ( 'NONE', ( #150 ) ) ;
#126 = DIRECTION ( 'NONE',  ( -1.848649427300838242E-30, 1.000000000000000000, -5.294742396971736819E-16 ) ) ;
#127 = AXIS2_PLACEMENT_3D ( 'NONE', #168, #148, #216 ) ;
#128 = FACE_OUTER_BOUND ( 'NONE', #114, .T. ) ;
#129 = DIRECTION ( 'NONE',  ( -3.491481338843133355E-15, 9.031770143711729009E-17, -1.000000000000000000 ) ) ;
#130 = DIRECTION ( 'NONE',  ( -1.848649427300838242E-30, 1.000000000000000000, -5.294742396971736819E-16 ) ) ;
#131 = AXIS2_PLACEMENT_3D ( 'NONE', #4, #215, #149 ) ;
#132 = DIRECTION ( 'NONE',  ( -1.848649427300838242E-30, 1.000000000000000000, -5.294742396971736819E-16 ) ) ;
#133 = AXIS2_PLACEMENT_3D ( 'NONE', #237, #96, #7 ) ;
#134 = APPLICATION_CONTEXT ( 'configuration controlled 3d designs of mechanical parts and assemblies' ) ;
#135 = PERSON_AND_ORGANIZATION ( #90, #81 ) ;
#136 = ADVANCED_FACE ( 'NONE', ( #43, #59 ), #113, .T. ) ;
#137 = COORDINATED_UNIVERSAL_TIME_OFFSET ( 1, 0, .AHEAD. ) ;
#138 = VERTEX_POINT ( 'NONE', #203 ) ;
#139 =( GEOMETRIC_REPRESENTATION_CONTEXT ( 3 ) GLOBAL_UNCERTAINTY_ASSIGNED_CONTEXT ( ( #177 ) ) GLOBAL_UNIT_ASSIGNED_CONTEXT ( ( #73, #220, #50 ) ) REPRESENTATION_CONTEXT ( 'NONE', 'WORKASPACE' ) );
#140 = DIRECTION ( 'NONE',  ( -3.491481338843133355E-15, 9.031770143711729009E-17, -1.000000000000000000 ) ) ;
#141 = EDGE_LOOP ( 'NONE', ( #3 ) ) ;
#142 = DATE_AND_TIME ( #74, #67 ) ;
#143 = DATE_AND_TIME ( #181, #117 ) ;
#144 = EDGE_LOOP ( 'NONE', ( #76 ) ) ;
#145 = AXIS2_PLACEMENT_3D ( 'NONE', #99, #129, #78 ) ;
#146 = APPROVAL_PERSON_ORGANIZATION ( #201, #25, #176 ) ;
#147 = PERSON_AND_ORGANIZATION ( #90, #81 ) ;
#148 = DIRECTION ( 'NONE',  ( 3.491481338843133355E-15, -9.031770143711729009E-17, 1.000000000000000000 ) ) ;
#149 = DIRECTION ( 'NONE',  ( 0.0000000000000000000, 1.000000000000000000, 0.0000000000000000000 ) ) ;
#150 = ORIENTED_EDGE ( 'NONE', *, *, #58, .F. ) ;
#151 = ADVANCED_FACE ( 'NONE', ( #214, #116 ), #37, .T. ) ;
#152 = PLANE ( 'NONE',  #127 ) ;
#153 = DIRECTION ( 'NONE',  ( -2.221692798139572340E-30, 1.000000000000000000, -6.253509286145682863E-16 ) ) ;
#154 = DATE_TIME_ROLE ( 'creation_date' ) ;
#155 = AXIS2_PLACEMENT_3D ( 'NONE', #103, #140, #225 ) ;
#156 = DESIGN_CONTEXT ( 'detailed design', #134, 'design' ) ;
#157 = CARTESIAN_POINT ( 'NONE',  ( 1.396592535537253145E-15, 2.773999999999998689, 0.3999999999999999667 ) ) ;
#158 = CARTESIAN_POINT ( 'NONE',  ( 2.793185071074506684E-13, 1.599999999999987876, 80.00000000000000000 ) ) ;
#159 = CC_DESIGN_APPROVAL ( #229, ( #234 ) ) ;
#160 = DIRECTION ( 'NONE',  ( 0.0000000000000000000, 1.000000000000000000, 0.0000000000000000000 ) ) ;
#161 = PERSON_AND_ORGANIZATION_ROLE ( 'classification_officer' ) ;
#162 = ADVANCED_FACE ( 'NONE', ( #98 ), #23, .T. ) ;
#163 = PERSON_AND_ORGANIZATION ( #90, #81 ) ;
#164 = ORIENTED_EDGE ( 'NONE', *, *, #190, .F. ) ;
#165 = APPROVAL_ROLE ( '' ) ;
#166 = SECURITY_CLASSIFICATION ( '', '', #110 ) ;
#167 = DIRECTION ( 'NONE',  ( -3.491481338843133355E-15, -5.294742396971736819E-16, -1.000000000000000000 ) ) ;
#168 = CARTESIAN_POINT ( 'NONE',  ( 2.793185071074506684E-13, -7.225416114969383207E-15, 80.00000000000000000 ) ) ;
#169 = DIRECTION ( 'NONE',  ( -3.491481338843133355E-15, -5.294742396971736819E-16, -1.000000000000000000 ) ) ;
#170 = CC_DESIGN_DATE_AND_TIME_ASSIGNMENT ( #83, #154, ( #97 ) ) ;
#171 = AXIS2_PLACEMENT_3D ( 'NONE', #235, #167, #153 ) ;
#172 = LOCAL_TIME ( 11, 4, 1.000000000000000000, #137 ) ;
#173 = PLANE ( 'NONE',  #133 ) ;
#174 = FACE_OUTER_BOUND ( 'NONE', #20, .T. ) ;
#175 = CC_DESIGN_PERSON_AND_ORGANIZATION_ASSIGNMENT ( #147, #161, ( #166 ) ) ;
#176 = APPROVAL_ROLE ( '' ) ;
#177 = UNCERTAINTY_MEASURE_WITH_UNIT (LENGTH_MEASURE( 1.000000000000000082E-05 ), #73, 'distance_accuracy_value', 'NONE');
#178 = DIRECTION ( 'NONE',  ( -1.874553298430259137E-30, 1.000000000000000000, -5.276398460185405771E-16 ) ) ;
#179 = VERTEX_POINT ( 'NONE', #197 ) ;
#180 = CONICAL_SURFACE ( 'NONE', #222, 1.999999999999995337, 0.7853981633974516097 ) ;
#181 = CALENDAR_DATE ( 2021, 26, 11 ) ;
#182 = EDGE_CURVE ( 'NONE', #68, #68, #226, .T. ) ;
#183 = ORIENTED_EDGE ( 'NONE', *, *, #241, .T. ) ;
#184 = APPROVAL_DATE_TIME ( #143, #229 ) ;
#185 = CLOSED_SHELL ( 'NONE', ( #34, #136, #62, #162 ) ) ;
#186 = APPROVAL_PERSON_ORGANIZATION ( #54, #89, #165 ) ;
#187 = AXIS2_PLACEMENT_3D ( 'NONE', #224, #102, #240 ) ;
#188 = PERSON_AND_ORGANIZATION ( #90, #81 ) ;
#189 = EDGE_LOOP ( 'NONE', ( #92 ) ) ;
#190 = EDGE_CURVE ( 'NONE', #138, #138, #26, .T. ) ;
#191 = DIRECTION ( 'NONE',  ( -3.491481338843133355E-15, 9.031770143711729009E-17, -1.000000000000000000 ) ) ;
#192 = CARTESIAN_POINT ( 'NONE',  ( 4.417160714139829109E-14, -1.142631919985091949E-15, 12.65125110364590988 ) ) ;
#193 = DIRECTION ( 'NONE',  ( -3.491481338843133355E-15, -5.294742396971736819E-16, -1.000000000000000000 ) ) ;
#194 = CARTESIAN_POINT ( 'NONE',  ( 4.701226213536768432E-30, 7.129289643809372355E-31, 1.346484702992705050E-15 ) ) ;
#195 = PRODUCT_DEFINITION_SHAPE ( 'NONE', 'NONE',  #97 ) ;
#196 = DIRECTION ( 'NONE',  ( 0.0000000000000000000, 1.000000000000000000, 0.0000000000000000000 ) ) ;
#197 = CARTESIAN_POINT ( 'NONE',  ( -6.842277657836020854E-46, 2.543059892324148752, 0.0000000000000000000 ) ) ;
#198 = DIRECTION ( 'NONE',  ( -3.491481338843133355E-15, -5.294742396971736819E-16, -1.000000000000000000 ) ) ;
#199 = CARTESIAN_POINT ( 'NONE',  ( 1.396592535537258272E-15, 2.117896958788702222E-16, 0.4000000000000014100 ) ) ;
#200 = CIRCLE ( 'NONE', #155, 1.999999999999995337 ) ;
#201 = PERSON_AND_ORGANIZATION ( #90, #81 ) ;
#202 = EDGE_CURVE ( 'NONE', #243, #243, #200, .T. ) ;
#203 = CARTESIAN_POINT ( 'NONE',  ( 4.885231259955590439E-14, 1.999999999999990452, 13.99185842870425134 ) ) ;
#204 = APPROVAL_PERSON_ORGANIZATION ( #135, #229, #38 ) ;
#205 = COORDINATED_UNIVERSAL_TIME_OFFSET ( 1, 0, .AHEAD. ) ;
#206 = ORIENTED_EDGE ( 'NONE', *, *, #182, .T. ) ;
#207 = EDGE_LOOP ( 'NONE', ( #230 ) ) ;
#208 = CALENDAR_DATE ( 2021, 26, 11 ) ;
#209 = AXIS2_PLACEMENT_3D ( 'NONE', #218, #169, #130 ) ;
#210 = APPROVAL_STATUS ( 'not_yet_approved' ) ;
#211 = ORIENTED_EDGE ( 'NONE', *, *, #202, .F. ) ;
#212 = FACE_BOUND ( 'NONE', #33, .T. ) ;
#213 = AXIS2_PLACEMENT_3D ( 'NONE', #5, #191, #79 ) ;
#214 = FACE_BOUND ( 'NONE', #57, .T. ) ;
#215 = DIRECTION ( 'NONE',  ( -3.491481338843133355E-15, 9.031770143711729009E-17, -1.000000000000000000 ) ) ;
#216 = DIRECTION ( 'NONE',  ( -3.153425691349006731E-31, -1.000000000000000000, -9.031770143711729009E-17 ) ) ;
#217 = AXIS2_PLACEMENT_3D ( 'NONE', #60, #115, #6 ) ;
#218 = CARTESIAN_POINT ( 'NONE',  ( 4.701226213536768432E-30, 7.129289643809372355E-31, 1.346484702992705050E-15 ) ) ;
#219 = DIRECTION ( 'NONE',  ( -3.491481338843133355E-15, 9.031770143711729009E-17, -1.000000000000000000 ) ) ;
#220 =( NAMED_UNIT ( * ) PLANE_ANGLE_UNIT ( ) SI_UNIT ( $, .RADIAN. ) );
#221 = CC_DESIGN_PERSON_AND_ORGANIZATION_ASSIGNMENT ( #86, #10, ( #118 ) ) ;
#222 = AXIS2_PLACEMENT_3D ( 'NONE', #21, #64, #42 ) ;
#223 = VERTEX_POINT ( 'NONE', #88 ) ;
#224 = CARTESIAN_POINT ( 'NONE',  ( 0.0000000000000000000, 0.0000000000000000000, 0.0000000000000000000 ) ) ;
#225 = DIRECTION ( 'NONE',  ( 0.0000000000000000000, 1.000000000000000000, 0.0000000000000000000 ) ) ;
#226 = CIRCLE ( 'NONE', #213, 1.599999999999994982 ) ;
#227 = APPROVAL_DATE_TIME ( #142, #89 ) ;
#228 = EDGE_LOOP ( 'NONE', ( #52 ) ) ;
#229 = APPROVAL ( #210, 'UNSPECIFIED' ) ;
#230 = ORIENTED_EDGE ( 'NONE', *, *, #32, .F. ) ;
#231 = FACE_OUTER_BOUND ( 'NONE', #39, .T. ) ;
#232 = APPLICATION_CONTEXT ( 'configuration controlled 3d designs of mechanical parts and assemblies' ) ;
#233 = FACE_OUTER_BOUND ( 'NONE', #228, .T. ) ;
#234 = PRODUCT_DEFINITION_FORMATION_WITH_SPECIFIED_SOURCE ( 'ANY', '', #118, .NOT_KNOWN. ) ;
#235 = CARTESIAN_POINT ( 'NONE',  ( 4.417160714139829740E-14, 6.698511559320949097E-15, 12.65125110364591166 ) ) ;
#236 = CARTESIAN_POINT ( 'NONE',  ( 0.0000000000000000000, 0.0000000000000000000, 0.0000000000000000000 ) ) ;
#237 = CARTESIAN_POINT ( 'NONE',  ( 4.417160714139829740E-14, 2.773999999999998245, 12.65125110364591166 ) ) ;
#238 = CIRCLE ( 'NONE', #48, 2.773999999999998689 ) ;
#239 = CARTESIAN_POINT ( 'NONE',  ( 4.885231259955590439E-14, -1.263712492114123682E-15, 13.99185842870425134 ) ) ;
#240 = DIRECTION ( 'NONE',  ( 1.000000000000000000, 0.0000000000000000000, 0.0000000000000000000 ) ) ;
#241 = EDGE_CURVE ( 'NONE', #49, #49, #238, .T. ) ;
#242 = MANIFOLD_SOLID_BREP ( 'Corps-Déplacer/Copier1[2]', #185 ) ;
#243 = VERTEX_POINT ( 'NONE', #28 ) ;
ENDSEC;
END-ISO-10303-21;
