ISO-10303-21;
HEADER;
FILE_DESCRIPTION (( 'STEP AP203' ),
    '1' );
FILE_NAME ('321457.step',
    '2021-11-26T10:04:01',
    ( '' ),
    ( '' ),
    'SwSTEP 2.0',
    'SolidWorks 2019',
    '' );
FILE_SCHEMA (( 'CONFIG_CONTROL_DESIGN' ));
ENDSEC;

DATA;
#1 = APPROVAL_STATUS ( 'not_yet_approved' ) ;
#2 = AXIS2_PLACEMENT_3D ( 'NONE', #170, #166, #243 ) ;
#3 = DIRECTION ( 'NONE',  ( 1.000000000000000000, 0.0000000000000000000, 0.0000000000000000000 ) ) ;
#4 = PERSON ( 'UNSPECIFIED', 'UNSPECIFIED', 'UNSPECIFIED', ('UNSPECIFIED'), ('UNSPECIFIED'), ('UNSPECIFIED') ) ;
#5 = DATE_AND_TIME ( #162, #148 ) ;
#6 = EDGE_LOOP ( 'NONE', ( #158 ) ) ;
#7 = ORIENTED_EDGE ( 'NONE', *, *, #198, .F. ) ;
#8 = PRODUCT_DEFINITION ( 'UNKNOWN', '', #233, #109 ) ;
#9 = PRODUCT_DEFINITION_SHAPE ( 'NONE', 'NONE',  #8 ) ;
#10 = DATE_AND_TIME ( #48, #33 ) ;
#11 = DIRECTION ( 'NONE',  ( 0.0000000000000000000, 1.000000000000000000, 0.0000000000000000000 ) ) ;
#12 = DIRECTION ( 'NONE',  ( 3.491481338843133355E-15, 5.289444941318029114E-16, 1.000000000000000000 ) ) ;
#13 = CARTESIAN_POINT ( 'NONE',  ( 4.420184425676106613E-14, -1.143414094223651640E-15, 12.65991135768375564 ) ) ;
#14 = FACE_OUTER_BOUND ( 'NONE', #27, .T. ) ;
#15 = ADVANCED_FACE ( 'NONE', ( #161, #139 ), #92, .T. ) ;
#16 = CARTESIAN_POINT ( 'NONE',  ( 4.420184425676106613E-14, -1.143414094223651640E-15, 12.65991135768375564 ) ) ;
#17 =( LENGTH_UNIT ( ) NAMED_UNIT ( * ) SI_UNIT ( .MILLI., .METRE. ) );
#18 = APPLICATION_PROTOCOL_DEFINITION ( 'international standard', 'config_control_design', 1994, #23 ) ;
#19 = CIRCLE ( 'NONE', #163, 2.768999999999992134 ) ;
#20 = APPROVAL_PERSON_ORGANIZATION ( #118, #225, #100 ) ;
#21 = CARTESIAN_POINT ( 'NONE',  ( 0.0000000000000000000, 2.538059892324149303, 0.0000000000000000000 ) ) ;
#22 = PERSON_AND_ORGANIZATION ( #4, #153 ) ;
#23 = APPLICATION_CONTEXT ( 'configuration controlled 3d designs of mechanical parts and assemblies' ) ;
#24 = PERSON_AND_ORGANIZATION ( #4, #153 ) ;
#25 = CIRCLE ( 'NONE', #123, 1.999999999999991784 ) ;
#26 = PRODUCT_RELATED_PRODUCT_CATEGORY ( 'detail', '', ( #228 ) ) ;
#27 = EDGE_LOOP ( 'NONE', ( #83 ) ) ;
#28 = CALENDAR_DATE ( 2021, 26, 11 ) ;
#29 = ADVANCED_BREP_SHAPE_REPRESENTATION ( '321457', ( #197, #116, #224 ), #195 ) ;
#30 = EDGE_CURVE ( 'NONE', #191, #191, #19, .T. ) ;
#31 = EDGE_LOOP ( 'NONE', ( #61 ) ) ;
#32 = CLOSED_SHELL ( 'NONE', ( #182, #37, #74, #160 ) ) ;
#33 = LOCAL_TIME ( 11, 4, 1.000000000000000000, #64 ) ;
#34 = APPROVAL_STATUS ( 'not_yet_approved' ) ;
#35 = FACE_OUTER_BOUND ( 'NONE', #67, .T. ) ;
#36 = APPROVAL_PERSON_ORGANIZATION ( #24, #54, #154 ) ;
#37 = ADVANCED_FACE ( 'NONE', ( #239, #183 ), #221, .T. ) ;
#38 = DIRECTION ( 'NONE',  ( 0.0000000000000000000, 1.000000000000000000, 0.0000000000000000000 ) ) ;
#39 = DIRECTION ( 'NONE',  ( -3.491481338843133355E-15, 9.031770143711729009E-17, -1.000000000000000000 ) ) ;
#40 = DIRECTION ( 'NONE',  ( -1.877938190626774528E-30, 1.000000000000000000, -5.285926084707228280E-16 ) ) ;
#41 = CC_DESIGN_PERSON_AND_ORGANIZATION_ASSIGNMENT ( #58, #210, ( #8 ) ) ;
#42 = FACE_BOUND ( 'NONE', #142, .T. ) ;
#43 = VERTEX_POINT ( 'NONE', #129 ) ;
#44 = DIRECTION ( 'NONE',  ( 3.153425691349006731E-31, 1.000000000000000000, 9.031770143711729009E-17 ) ) ;
#45 =( NAMED_UNIT ( * ) SI_UNIT ( $, .STERADIAN. ) SOLID_ANGLE_UNIT ( ) );
#46 = CC_DESIGN_PERSON_AND_ORGANIZATION_ASSIGNMENT ( #22, #130, ( #228 ) ) ;
#47 = COORDINATED_UNIVERSAL_TIME_OFFSET ( 1, 0, .AHEAD. ) ;
#48 = CALENDAR_DATE ( 2021, 26, 11 ) ;
#49 = ORIENTED_EDGE ( 'NONE', *, *, #127, .F. ) ;
#50 = EDGE_LOOP ( 'NONE', ( #196 ) ) ;
#51 = CIRCLE ( 'NONE', #103, 2.768999999999998796 ) ;
#52 = DIRECTION ( 'NONE',  ( -3.491481338843133355E-15, -5.289444941318029114E-16, -1.000000000000000000 ) ) ;
#53 = CARTESIAN_POINT ( 'NONE',  ( 4.687288579057327572E-30, 7.101041780508990229E-31, 1.342492805821615136E-15 ) ) ;
#54 = APPROVAL ( #1, 'UNSPECIFIED' ) ;
#55 = DIRECTION ( 'NONE',  ( -3.491481338843133355E-15, -5.289444941318029114E-16, -1.000000000000000000 ) ) ;
#56 = DIRECTION ( 'NONE',  ( 0.0000000000000000000, 1.000000000000000000, 0.0000000000000000000 ) ) ;
#57 = CARTESIAN_POINT ( 'NONE',  ( 1.396592535537258272E-15, 2.115777976527219238E-16, 0.4000000000000014100 ) ) ;
#58 = PERSON_AND_ORGANIZATION ( #4, #153 ) ;
#59 = ADVANCED_FACE ( 'NONE', ( #110 ), #107, .T. ) ;
#60 = LOCAL_TIME ( 11, 4, 1.000000000000000000, #47 ) ;
#61 = ORIENTED_EDGE ( 'NONE', *, *, #199, .F. ) ;
#62 = CC_DESIGN_APPROVAL ( #54, ( #8 ) ) ;
#63 = SECURITY_CLASSIFICATION ( '', '', #178 ) ;
#64 = COORDINATED_UNIVERSAL_TIME_OFFSET ( 1, 0, .AHEAD. ) ;
#65 = PERSON_AND_ORGANIZATION ( #4, #153 ) ;
#66 = EDGE_LOOP ( 'NONE', ( #102 ) ) ;
#67 = EDGE_LOOP ( 'NONE', ( #70 ) ) ;
#68 = AXIS2_PLACEMENT_3D ( 'NONE', #16, #189, #152 ) ;
#69 = CC_DESIGN_DATE_AND_TIME_ASSIGNMENT ( #5, #234, ( #63 ) ) ;
#70 = ORIENTED_EDGE ( 'NONE', *, *, #168, .T. ) ;
#71 = DIRECTION ( 'NONE',  ( 3.153425691349006731E-31, 1.000000000000000000, 9.031770143711729009E-17 ) ) ;
#72 = CARTESIAN_POINT ( 'NONE',  ( 2.779219145719134403E-13, -7.189289034394536528E-15, 79.60000000000000853 ) ) ;
#73 = UNCERTAINTY_MEASURE_WITH_UNIT (LENGTH_MEASURE( 1.000000000000000082E-05 ), #17, 'distance_accuracy_value', 'NONE');
#74 = ADVANCED_FACE ( 'NONE', ( #111, #187 ), #219, .T. ) ;
#75 = PLANE ( 'NONE',  #236 ) ;
#76 = FACE_OUTER_BOUND ( 'NONE', #177, .T. ) ;
#77 = DIRECTION ( 'NONE',  ( -3.491481338843133355E-15, 9.031770143711729009E-17, -1.000000000000000000 ) ) ;
#78 = AXIS2_PLACEMENT_3D ( 'NONE', #124, #52, #125 ) ;
#79 = CALENDAR_DATE ( 2021, 26, 11 ) ;
#80 = VERTEX_POINT ( 'NONE', #230 ) ;
#81 =( NAMED_UNIT ( * ) PLANE_ANGLE_UNIT ( ) SI_UNIT ( $, .RADIAN. ) );
#82 = DIRECTION ( 'NONE',  ( 0.0000000000000000000, 0.0000000000000000000, 1.000000000000000000 ) ) ;
#83 = ORIENTED_EDGE ( 'NONE', *, *, #186, .F. ) ;
#84 = ORIENTED_EDGE ( 'NONE', *, *, #30, .F. ) ;
#85 = AXIS2_PLACEMENT_3D ( 'NONE', #114, #115, #44 ) ;
#86 = COORDINATED_UNIVERSAL_TIME_OFFSET ( 1, 0, .AHEAD. ) ;
#87 = DATE_AND_TIME ( #28, #60 ) ;
#88 = APPROVAL_DATE_TIME ( #87, #105 ) ;
#89 = PLANE ( 'NONE',  #229 ) ;
#90 = CARTESIAN_POINT ( 'NONE',  ( 0.0000000000000000000, 0.0000000000000000000, 0.0000000000000000000 ) ) ;
#91 = DIRECTION ( 'NONE',  ( 1.846799830545011252E-30, -1.000000000000000000, 5.289444941318029114E-16 ) ) ;
#92 = CONICAL_SURFACE ( 'NONE', #68, 2.768999999999999684, 0.5235987755982935976 ) ;
#93 = DIRECTION ( 'NONE',  ( -3.491481338843133355E-15, 9.031770143711729009E-17, -1.000000000000000000 ) ) ;
#94 = DIRECTION ( 'NONE',  ( -3.491481338843133355E-15, -5.289444941318029114E-16, -1.000000000000000000 ) ) ;
#95 = APPLICATION_CONTEXT ( 'configuration controlled 3d designs of mechanical parts and assemblies' ) ;
#96 = DATE_AND_TIME ( #211, #201 ) ;
#97 = ADVANCED_FACE ( 'NONE', ( #42, #14 ), #207, .T. ) ;
#98 = VERTEX_POINT ( 'NONE', #194 ) ;
#99 = EDGE_LOOP ( 'NONE', ( #181 ) ) ;
#100 = APPROVAL_ROLE ( '' ) ;
#101 = ORIENTED_EDGE ( 'NONE', *, *, #113, .T. ) ;
#102 = ORIENTED_EDGE ( 'NONE', *, *, #199, .T. ) ;
#103 = AXIS2_PLACEMENT_3D ( 'NONE', #57, #55, #40 ) ;
#104 = EDGE_LOOP ( 'NONE', ( #49 ) ) ;
#105 = APPROVAL ( #34, 'UNSPECIFIED' ) ;
#106 = EDGE_LOOP ( 'NONE', ( #84 ) ) ;
#107 = PLANE ( 'NONE',  #179 ) ;
#108 = CARTESIAN_POINT ( 'NONE',  ( 4.420184425676105982E-14, 6.696390408843499798E-15, 12.65991135768375386 ) ) ;
#109 = DESIGN_CONTEXT ( 'detailed design', #23, 'design' ) ;
#110 = FACE_OUTER_BOUND ( 'NONE', #104, .T. ) ;
#111 = FACE_OUTER_BOUND ( 'NONE', #137, .T. ) ;
#112 = CC_DESIGN_PERSON_AND_ORGANIZATION_ASSIGNMENT ( #213, #180, ( #63 ) ) ;
#113 = EDGE_CURVE ( 'NONE', #80, #80, #51, .T. ) ;
#114 = CARTESIAN_POINT ( 'NONE',  ( 0.0000000000000000000, 0.0000000000000000000, 0.0000000000000000000 ) ) ;
#115 = DIRECTION ( 'NONE',  ( -3.491481338843133355E-15, 9.031770143711729009E-17, -1.000000000000000000 ) ) ;
#116 = MANIFOLD_SOLID_BREP ( 'Corps-Déplacer/Copier1[2]', #32 ) ;
#117 = CARTESIAN_POINT ( 'NONE',  ( 0.0000000000000000000, 0.0000000000000000000, 0.0000000000000000000 ) ) ;
#118 = PERSON_AND_ORGANIZATION ( #4, #153 ) ;
#119 = EDGE_LOOP ( 'NONE', ( #237 ) ) ;
#120 = APPROVAL_STATUS ( 'not_yet_approved' ) ;
#121 = AXIS2_PLACEMENT_3D ( 'NONE', #223, #77, #11 ) ;
#122 = DIRECTION ( 'NONE',  ( 0.0000000000000000000, 1.000000000000000000, 0.0000000000000000000 ) ) ;
#123 = AXIS2_PLACEMENT_3D ( 'NONE', #241, #39, #56 ) ;
#124 = CARTESIAN_POINT ( 'NONE',  ( -2.343644289528663786E-30, 2.538059892324149303, -6.712464029108075681E-16 ) ) ;
#125 = DIRECTION ( 'NONE',  ( -1.846799830545011252E-30, 1.000000000000000000, -5.289444941318029114E-16 ) ) ;
#126 = CYLINDRICAL_SURFACE ( 'NONE', #85, 1.999999999999993561 ) ;
#127 = EDGE_CURVE ( 'NONE', #193, #193, #159, .T. ) ;
#128 = CIRCLE ( 'NONE', #134, 2.538059892324149303 ) ;
#129 = CARTESIAN_POINT ( 'NONE',  ( 4.885231259955590439E-14, 1.999999999999990452, 13.99185842870425134 ) ) ;
#130 = PERSON_AND_ORGANIZATION_ROLE ( 'design_owner' ) ;
#131 = DATE_TIME_ROLE ( 'creation_date' ) ;
#132 = CC_DESIGN_SECURITY_CLASSIFICATION ( #63, ( #233 ) ) ;
#133 = VERTEX_POINT ( 'NONE', #190 ) ;
#134 = AXIS2_PLACEMENT_3D ( 'NONE', #53, #204, #205 ) ;
#135 = PERSON_AND_ORGANIZATION ( #4, #153 ) ;
#136 = ORIENTED_EDGE ( 'NONE', *, *, #186, .T. ) ;
#137 = EDGE_LOOP ( 'NONE', ( #101 ) ) ;
#138 = PERSON_AND_ORGANIZATION ( #4, #153 ) ;
#139 = FACE_OUTER_BOUND ( 'NONE', #119, .T. ) ;
#140 = PERSON_AND_ORGANIZATION_ROLE ( 'creator' ) ;
#141 = AXIS2_PLACEMENT_3D ( 'NONE', #90, #94, #202 ) ;
#142 = EDGE_LOOP ( 'NONE', ( #215 ) ) ;
#143 = CC_DESIGN_APPROVAL ( #105, ( #233 ) ) ;
#144 = EDGE_LOOP ( 'NONE', ( #7 ) ) ;
#145 = FACE_OUTER_BOUND ( 'NONE', #50, .T. ) ;
#146 = DIRECTION ( 'NONE',  ( -3.491481338843133355E-15, 9.031770143711729009E-17, -1.000000000000000000 ) ) ;
#147 = CLOSED_SHELL ( 'NONE', ( #59, #97, #232, #15, #150 ) ) ;
#148 = LOCAL_TIME ( 11, 4, 1.000000000000000000, #86 ) ;
#149 = CARTESIAN_POINT ( 'NONE',  ( 2.793185071074506684E-13, -7.225416114969383207E-15, 80.00000000000000000 ) ) ;
#150 = ADVANCED_FACE ( 'NONE', ( #35 ), #89, .T. ) ;
#151 = DIRECTION ( 'NONE',  ( -2.225704522224330842E-30, 1.000000000000000000, -6.264801285578952633E-16 ) ) ;
#152 = DIRECTION ( 'NONE',  ( 0.0000000000000000000, 1.000000000000000000, 0.0000000000000000000 ) ) ;
#153 = ORGANIZATION ( 'UNSPECIFIED', 'UNSPECIFIED', '' ) ;
#154 = APPROVAL_ROLE ( '' ) ;
#155 = CIRCLE ( 'NONE', #188, 2.768999999999999684 ) ;
#156 = CARTESIAN_POINT ( 'NONE',  ( 4.420184425676106613E-14, 2.768999999999998352, 12.65991135768375564 ) ) ;
#157 = CC_DESIGN_PERSON_AND_ORGANIZATION_ASSIGNMENT ( #65, #216, ( #233 ) ) ;
#158 = ORIENTED_EDGE ( 'NONE', *, *, #113, .F. ) ;
#159 = CIRCLE ( 'NONE', #176, 1.599999999999994982 ) ;
#160 = ADVANCED_FACE ( 'NONE', ( #145 ), #218, .T. ) ;
#161 = FACE_BOUND ( 'NONE', #66, .T. ) ;
#162 = CALENDAR_DATE ( 2021, 26, 11 ) ;
#163 = AXIS2_PLACEMENT_3D ( 'NONE', #184, #169, #151 ) ;
#164 = CARTESIAN_POINT ( 'NONE',  ( 4.420184425676105982E-14, 2.768999999999998352, 12.65991135768375386 ) ) ;
#165 = CARTESIAN_POINT ( 'NONE',  ( 2.793185071074506684E-13, -7.225416114969383207E-15, 80.00000000000000000 ) ) ;
#166 = DIRECTION ( 'NONE',  ( 3.491481338843133355E-15, 5.289444941318029114E-16, 1.000000000000000000 ) ) ;
#167 = AXIS2_PLACEMENT_3D ( 'NONE', #72, #146, #220 ) ;
#168 = EDGE_CURVE ( 'NONE', #133, #133, #155, .T. ) ;
#169 = DIRECTION ( 'NONE',  ( -3.491481338843133355E-15, -5.289444941318029114E-16, -1.000000000000000000 ) ) ;
#170 = CARTESIAN_POINT ( 'NONE',  ( 4.687288579057327572E-30, 7.101041780508990229E-31, 1.342492805821615136E-15 ) ) ;
#171 = VERTEX_POINT ( 'NONE', #21 ) ;
#172 = LOCAL_TIME ( 11, 4, 1.000000000000000000, #208 ) ;
#173 = APPLICATION_PROTOCOL_DEFINITION ( 'international standard', 'config_control_design', 1994, #95 ) ;
#174 = MECHANICAL_CONTEXT ( 'NONE', #95, 'mechanical' ) ;
#175 = COORDINATED_UNIVERSAL_TIME_OFFSET ( 1, 0, .AHEAD. ) ;
#176 = AXIS2_PLACEMENT_3D ( 'NONE', #165, #200, #38 ) ;
#177 = EDGE_LOOP ( 'NONE', ( #136 ) ) ;
#178 = SECURITY_CLASSIFICATION_LEVEL ( 'unclassified' ) ;
#179 = AXIS2_PLACEMENT_3D ( 'NONE', #149, #240, #222 ) ;
#180 = PERSON_AND_ORGANIZATION_ROLE ( 'classification_officer' ) ;
#181 = ORIENTED_EDGE ( 'NONE', *, *, #30, .T. ) ;
#182 = ADVANCED_FACE ( 'NONE', ( #206 ), #75, .T. ) ;
#183 = FACE_OUTER_BOUND ( 'NONE', #6, .T. ) ;
#184 = CARTESIAN_POINT ( 'NONE',  ( 4.420184425676107244E-14, 6.696390408843500587E-15, 12.65991135768375742 ) ) ;
#185 = FACE_OUTER_BOUND ( 'NONE', #31, .T. ) ;
#186 = EDGE_CURVE ( 'NONE', #98, #98, #212, .T. ) ;
#187 = FACE_BOUND ( 'NONE', #144, .T. ) ;
#188 = AXIS2_PLACEMENT_3D ( 'NONE', #13, #93, #122 ) ;
#189 = DIRECTION ( 'NONE',  ( -3.491481338843133355E-15, 9.031770143711729009E-17, -1.000000000000000000 ) ) ;
#190 = CARTESIAN_POINT ( 'NONE',  ( 4.420184425676106613E-14, 2.768999999999998352, 12.65991135768375564 ) ) ;
#191 = VERTEX_POINT ( 'NONE', #156 ) ;
#192 = APPROVAL_PERSON_ORGANIZATION ( #135, #105, #214 ) ;
#193 = VERTEX_POINT ( 'NONE', #209 ) ;
#194 = CARTESIAN_POINT ( 'NONE',  ( 2.779219145719134403E-13, 1.999999999999988010, 79.60000000000000853 ) ) ;
#195 =( GEOMETRIC_REPRESENTATION_CONTEXT ( 3 ) GLOBAL_UNCERTAINTY_ASSIGNED_CONTEXT ( ( #73 ) ) GLOBAL_UNIT_ASSIGNED_CONTEXT ( ( #17, #81, #45 ) ) REPRESENTATION_CONTEXT ( 'NONE', 'WORKASPACE' ) );
#196 = ORIENTED_EDGE ( 'NONE', *, *, #198, .T. ) ;
#197 = MANIFOLD_SOLID_BREP ( 'Corps-Déplacer/Copier1[1]', #147 ) ;
#198 = EDGE_CURVE ( 'NONE', #171, #171, #128, .T. ) ;
#199 = EDGE_CURVE ( 'NONE', #43, #43, #25, .T. ) ;
#200 = DIRECTION ( 'NONE',  ( -3.491481338843133355E-15, 9.031770143711729009E-17, -1.000000000000000000 ) ) ;
#201 = LOCAL_TIME ( 11, 4, 1.000000000000000000, #175 ) ;
#202 = DIRECTION ( 'NONE',  ( -1.846799830545011252E-30, 1.000000000000000000, -5.289444941318030100E-16 ) ) ;
#203 = CC_DESIGN_APPROVAL ( #225, ( #63 ) ) ;
#204 = DIRECTION ( 'NONE',  ( -3.491481338843133355E-15, -5.289444941318029114E-16, -1.000000000000000000 ) ) ;
#205 = DIRECTION ( 'NONE',  ( -1.846799830545010902E-30, 1.000000000000000000, -5.289444941318028128E-16 ) ) ;
#206 = FACE_OUTER_BOUND ( 'NONE', #106, .T. ) ;
#207 = CONICAL_SURFACE ( 'NONE', #121, 1.999999999999995337, 0.7853981633974516097 ) ;
#208 = COORDINATED_UNIVERSAL_TIME_OFFSET ( 1, 0, .AHEAD. ) ;
#209 = CARTESIAN_POINT ( 'NONE',  ( 2.793185071074506684E-13, 1.599999999999987876, 80.00000000000000000 ) ) ;
#210 = PERSON_AND_ORGANIZATION_ROLE ( 'creator' ) ;
#211 = CALENDAR_DATE ( 2021, 26, 11 ) ;
#212 = CIRCLE ( 'NONE', #167, 1.999999999999995337 ) ;
#213 = PERSON_AND_ORGANIZATION ( #4, #153 ) ;
#214 = APPROVAL_ROLE ( '' ) ;
#215 = ORIENTED_EDGE ( 'NONE', *, *, #127, .T. ) ;
#216 = PERSON_AND_ORGANIZATION_ROLE ( 'design_supplier' ) ;
#217 = APPROVAL_DATE_TIME ( #10, #225 ) ;
#218 = PLANE ( 'NONE',  #78 ) ;
#219 = CONICAL_SURFACE ( 'NONE', #2, 2.538059892324149303, 0.5235987755982978165 ) ;
#220 = DIRECTION ( 'NONE',  ( 0.0000000000000000000, 1.000000000000000000, 0.0000000000000000000 ) ) ;
#221 = CYLINDRICAL_SURFACE ( 'NONE', #141, 2.768999999999995243 ) ;
#222 = DIRECTION ( 'NONE',  ( -3.153425691349006731E-31, -1.000000000000000000, -9.031770143711729009E-17 ) ) ;
#223 = CARTESIAN_POINT ( 'NONE',  ( 2.779219145719134403E-13, -7.189289034394536528E-15, 79.60000000000000853 ) ) ;
#224 = AXIS2_PLACEMENT_3D ( 'NONE', #117, #82, #3 ) ;
#225 = APPROVAL ( #120, 'UNSPECIFIED' ) ;
#226 = DATE_AND_TIME ( #79, #172 ) ;
#227 = APPROVAL_DATE_TIME ( #226, #54 ) ;
#228 = PRODUCT ( '321457', '321457', '', ( #174 ) ) ;
#229 = AXIS2_PLACEMENT_3D ( 'NONE', #164, #238, #71 ) ;
#230 = CARTESIAN_POINT ( 'NONE',  ( 1.396592535537253145E-15, 2.768999999999998796, 0.3999999999999999667 ) ) ;
#231 = SHAPE_DEFINITION_REPRESENTATION ( #9, #29 ) ;
#232 = ADVANCED_FACE ( 'NONE', ( #76, #185 ), #126, .T. ) ;
#233 = PRODUCT_DEFINITION_FORMATION_WITH_SPECIFIED_SOURCE ( 'ANY', '', #228, .NOT_KNOWN. ) ;
#234 = DATE_TIME_ROLE ( 'classification_date' ) ;
#235 = CC_DESIGN_DATE_AND_TIME_ASSIGNMENT ( #96, #131, ( #8 ) ) ;
#236 = AXIS2_PLACEMENT_3D ( 'NONE', #108, #12, #91 ) ;
#237 = ORIENTED_EDGE ( 'NONE', *, *, #168, .F. ) ;
#238 = DIRECTION ( 'NONE',  ( -3.491481338843133355E-15, 9.031770143711729009E-17, -1.000000000000000000 ) ) ;
#239 = FACE_OUTER_BOUND ( 'NONE', #99, .T. ) ;
#240 = DIRECTION ( 'NONE',  ( 3.491481338843133355E-15, -9.031770143711729009E-17, 1.000000000000000000 ) ) ;
#241 = CARTESIAN_POINT ( 'NONE',  ( 4.885231259955590439E-14, -1.263712492114123682E-15, 13.99185842870425134 ) ) ;
#242 = CC_DESIGN_PERSON_AND_ORGANIZATION_ASSIGNMENT ( #138, #140, ( #233 ) ) ;
#243 = DIRECTION ( 'NONE',  ( 1.846799830545010902E-30, -1.000000000000000000, 5.289444941318028128E-16 ) ) ;
ENDSEC;
END-ISO-10303-21;
