ISO-10303-21;
HEADER;
FILE_DESCRIPTION (( 'STEP AP203' ),
    '1' );
FILE_NAME ('321456.step',
    '2021-11-26T10:04:00',
    ( '' ),
    ( '' ),
    'SwSTEP 2.0',
    'SolidWorks 2019',
    '' );
FILE_SCHEMA (( 'CONFIG_CONTROL_DESIGN' ));
ENDSEC;

DATA;
#1 = PERSON_AND_ORGANIZATION ( #49, #52 ) ;
#2 = ORIENTED_EDGE ( 'NONE', *, *, #208, .F. ) ;
#3 = AXIS2_PLACEMENT_3D ( 'NONE', #199, #126, #108 ) ;
#4 = DATE_TIME_ROLE ( 'classification_date' ) ;
#5 = EDGE_LOOP ( 'NONE', ( #66 ) ) ;
#6 = EDGE_CURVE ( 'NONE', #243, #243, #202, .T. ) ;
#7 = APPROVAL_STATUS ( 'not_yet_approved' ) ;
#8 = APPROVAL_STATUS ( 'not_yet_approved' ) ;
#9 = CLOSED_SHELL ( 'NONE', ( #26, #15, #237, #122, #163 ) ) ;
#10 = CARTESIAN_POINT ( 'NONE',  ( 2.779219145719134403E-13, -7.189289034394536528E-15, 79.60000000000000853 ) ) ;
#11 = CC_DESIGN_APPROVAL ( #29, ( #239 ) ) ;
#12 = FACE_OUTER_BOUND ( 'NONE', #184, .T. ) ;
#13 = PRODUCT ( '321456', '321456', '', ( #167 ) ) ;
#14 = CYLINDRICAL_SURFACE ( 'NONE', #182, 2.763999999999995349 ) ;
#15 = ADVANCED_FACE ( 'NONE', ( #235, #112 ), #24, .T. ) ;
#16 = CARTESIAN_POINT ( 'NONE',  ( 4.423208137212383487E-14, 6.694269258366052076E-15, 12.66857161172159785 ) ) ;
#17 = APPLICATION_CONTEXT ( 'configuration controlled 3d designs of mechanical parts and assemblies' ) ;
#18 = DESIGN_CONTEXT ( 'detailed design', #198, 'design' ) ;
#19 = CYLINDRICAL_SURFACE ( 'NONE', #21, 1.999999999999993561 ) ;
#20 = APPROVAL ( #8, 'UNSPECIFIED' ) ;
#21 = AXIS2_PLACEMENT_3D ( 'NONE', #153, #205, #240 ) ;
#22 =( LENGTH_UNIT ( ) NAMED_UNIT ( * ) SI_UNIT ( .MILLI., .METRE. ) );
#23 = CARTESIAN_POINT ( 'NONE',  ( 1.396592535537253342E-15, 2.763999999999998458, 0.3999999999999999667 ) ) ;
#24 = CONICAL_SURFACE ( 'NONE', #55, 1.999999999999995337, 0.7853981633974516097 ) ;
#25 = LOCAL_TIME ( 11, 4, 0.0000000000000000000, #158 ) ;
#26 = ADVANCED_FACE ( 'NONE', ( #233 ), #219, .T. ) ;
#27 = PERSON_AND_ORGANIZATION_ROLE ( 'creator' ) ;
#28 = PERSON_AND_ORGANIZATION ( #49, #52 ) ;
#29 = APPROVAL ( #7, 'UNSPECIFIED' ) ;
#30 = AXIS2_PLACEMENT_3D ( 'NONE', #209, #136, #98 ) ;
#31 = DATE_AND_TIME ( #51, #81 ) ;
#32 = PERSON_AND_ORGANIZATION ( #49, #52 ) ;
#33 = PLANE ( 'NONE',  #193 ) ;
#34 = FACE_OUTER_BOUND ( 'NONE', #107, .T. ) ;
#35 = DIRECTION ( 'NONE',  ( -1.844952762563266676E-30, 1.000000000000000000, -5.284154728361150367E-16 ) ) ;
#36 = ADVANCED_FACE ( 'NONE', ( #91, #86 ), #188, .T. ) ;
#37 = FACE_OUTER_BOUND ( 'NONE', #129, .T. ) ;
#38 = DIRECTION ( 'NONE',  ( -3.153425691349006731E-31, -1.000000000000000000, -9.031770143711729009E-17 ) ) ;
#39 = ADVANCED_FACE ( 'NONE', ( #231 ), #33, .T. ) ;
#40 = DIRECTION ( 'NONE',  ( 3.491481338843133355E-15, 5.284154728361151353E-16, 1.000000000000000000 ) ) ;
#41 = CARTESIAN_POINT ( 'NONE',  ( 4.423208137212384118E-14, 2.763999999999998014, 12.66857161172159785 ) ) ;
#42 = AXIS2_PLACEMENT_3D ( 'NONE', #57, #236, #38 ) ;
#43 = CARTESIAN_POINT ( 'NONE',  ( 4.885231259955590439E-14, 1.999999999999990452, 13.99185842870425134 ) ) ;
#44 = CARTESIAN_POINT ( 'NONE',  ( 0.0000000000000000000, 2.533059892324148965, 0.0000000000000000000 ) ) ;
#45 = CIRCLE ( 'NONE', #80, 2.533059892324148965 ) ;
#46 = ORIENTED_EDGE ( 'NONE', *, *, #232, .F. ) ;
#47 = PERSON_AND_ORGANIZATION ( #49, #52 ) ;
#48 = CC_DESIGN_PERSON_AND_ORGANIZATION_ASSIGNMENT ( #32, #197, ( #239 ) ) ;
#49 = PERSON ( 'UNSPECIFIED', 'UNSPECIFIED', 'UNSPECIFIED', ('UNSPECIFIED'), ('UNSPECIFIED'), ('UNSPECIFIED') ) ;
#50 = CALENDAR_DATE ( 2021, 26, 11 ) ;
#51 = CALENDAR_DATE ( 2021, 26, 11 ) ;
#52 = ORGANIZATION ( 'UNSPECIFIED', 'UNSPECIFIED', '' ) ;
#53 = EDGE_CURVE ( 'NONE', #242, #242, #149, .T. ) ;
#54 = CARTESIAN_POINT ( 'NONE',  ( 4.673375846081649256E-30, 7.072883592344653405E-31, 1.338508040724664084E-15 ) ) ;
#55 = AXIS2_PLACEMENT_3D ( 'NONE', #10, #218, #131 ) ;
#56 = EDGE_LOOP ( 'NONE', ( #2 ) ) ;
#57 = CARTESIAN_POINT ( 'NONE',  ( 2.793185071074506684E-13, -7.225416114969383207E-15, 80.00000000000000000 ) ) ;
#58 = DIRECTION ( 'NONE',  ( 0.0000000000000000000, 1.000000000000000000, 0.0000000000000000000 ) ) ;
#59 = LOCAL_TIME ( 11, 4, 0.0000000000000000000, #82 ) ;
#60 = VERTEX_POINT ( 'NONE', #61 ) ;
#61 = CARTESIAN_POINT ( 'NONE',  ( 4.423208137212384118E-14, 2.763999999999998014, 12.66857161172159785 ) ) ;
#62 =( NAMED_UNIT ( * ) PLANE_ANGLE_UNIT ( ) SI_UNIT ( $, .RADIAN. ) );
#63 = CC_DESIGN_DATE_AND_TIME_ASSIGNMENT ( #31, #180, ( #241 ) ) ;
#64 = EDGE_LOOP ( 'NONE', ( #146 ) ) ;
#65 = APPROVAL_DATE_TIME ( #192, #29 ) ;
#66 = ORIENTED_EDGE ( 'NONE', *, *, #75, .F. ) ;
#67 = PERSON_AND_ORGANIZATION_ROLE ( 'design_supplier' ) ;
#68 = ORIENTED_EDGE ( 'NONE', *, *, #6, .T. ) ;
#69 = PERSON_AND_ORGANIZATION ( #49, #52 ) ;
#70 = PRODUCT_DEFINITION_FORMATION_WITH_SPECIFIED_SOURCE ( 'ANY', '', #13, .NOT_KNOWN. ) ;
#71 = CARTESIAN_POINT ( 'NONE',  ( 4.673375846081649256E-30, 7.072883592344653405E-31, 1.338508040724664084E-15 ) ) ;
#72 = LOCAL_TIME ( 11, 4, 0.0000000000000000000, #121 ) ;
#73 = DIRECTION ( 'NONE',  ( -1.844952762563266676E-30, 1.000000000000000000, -5.284154728361151353E-16 ) ) ;
#74 = DIRECTION ( 'NONE',  ( -3.491481338843133355E-15, -5.284154728361151353E-16, -1.000000000000000000 ) ) ;
#75 = EDGE_CURVE ( 'NONE', #222, #222, #45, .T. ) ;
#76 = DIRECTION ( 'NONE',  ( 0.0000000000000000000, 1.000000000000000000, 0.0000000000000000000 ) ) ;
#77 = SHAPE_DEFINITION_REPRESENTATION ( #103, #168 ) ;
#78 = APPROVAL_DATE_TIME ( #142, #20 ) ;
#79 = EDGE_LOOP ( 'NONE', ( #195 ) ) ;
#80 = AXIS2_PLACEMENT_3D ( 'NONE', #71, #201, #73 ) ;
#81 = LOCAL_TIME ( 11, 4, 0.0000000000000000000, #225 ) ;
#82 = COORDINATED_UNIVERSAL_TIME_OFFSET ( 1, 0, .AHEAD. ) ;
#83 = EDGE_LOOP ( 'NONE', ( #46 ) ) ;
#84 = DATE_AND_TIME ( #50, #25 ) ;
#85 = ADVANCED_FACE ( 'NONE', ( #12, #37 ), #14, .T. ) ;
#86 = FACE_BOUND ( 'NONE', #5, .T. ) ;
#87 = PLANE ( 'NONE',  #206 ) ;
#88 = CC_DESIGN_PERSON_AND_ORGANIZATION_ASSIGNMENT ( #227, #67, ( #70 ) ) ;
#89 = EDGE_LOOP ( 'NONE', ( #178 ) ) ;
#90 = DIRECTION ( 'NONE',  ( -3.491481338843133355E-15, -5.284154728361151353E-16, -1.000000000000000000 ) ) ;
#91 = FACE_OUTER_BOUND ( 'NONE', #215, .T. ) ;
#92 = APPLICATION_PROTOCOL_DEFINITION ( 'international standard', 'config_control_design', 1994, #17 ) ;
#93 = APPROVAL ( #210, 'UNSPECIFIED' ) ;
#94 = VERTEX_POINT ( 'NONE', #154 ) ;
#95 =( GEOMETRIC_REPRESENTATION_CONTEXT ( 3 ) GLOBAL_UNCERTAINTY_ASSIGNED_CONTEXT ( ( #127 ) ) GLOBAL_UNIT_ASSIGNED_CONTEXT ( ( #22, #62, #169 ) ) REPRESENTATION_CONTEXT ( 'NONE', 'WORKASPACE' ) );
#96 = FACE_OUTER_BOUND ( 'NONE', #141, .T. ) ;
#97 = FACE_OUTER_BOUND ( 'NONE', #64, .T. ) ;
#98 = DIRECTION ( 'NONE',  ( 0.0000000000000000000, 1.000000000000000000, 0.0000000000000000000 ) ) ;
#99 = LOCAL_TIME ( 11, 4, 0.0000000000000000000, #194 ) ;
#100 = CALENDAR_DATE ( 2021, 26, 11 ) ;
#101 = AXIS2_PLACEMENT_3D ( 'NONE', #114, #221, #170 ) ;
#102 = PERSON_AND_ORGANIZATION ( #49, #52 ) ;
#103 = PRODUCT_DEFINITION_SHAPE ( 'NONE', 'NONE',  #241 ) ;
#104 = CC_DESIGN_APPROVAL ( #20, ( #70 ) ) ;
#105 = CARTESIAN_POINT ( 'NONE',  ( 4.423208137212384749E-14, 6.694269258366054443E-15, 12.66857161172159962 ) ) ;
#106 = CC_DESIGN_PERSON_AND_ORGANIZATION_ASSIGNMENT ( #102, #27, ( #241 ) ) ;
#107 = EDGE_LOOP ( 'NONE', ( #224 ) ) ;
#108 = DIRECTION ( 'NONE',  ( 0.0000000000000000000, 1.000000000000000000, 0.0000000000000000000 ) ) ;
#109 = APPROVAL_PERSON_ORGANIZATION ( #47, #93, #181 ) ;
#110 = DIRECTION ( 'NONE',  ( -2.229730760506213197E-30, 1.000000000000000000, -6.276134138845196509E-16 ) ) ;
#111 = CC_DESIGN_PERSON_AND_ORGANIZATION_ASSIGNMENT ( #28, #196, ( #13 ) ) ;
#112 = FACE_OUTER_BOUND ( 'NONE', #56, .T. ) ;
#113 = DIRECTION ( 'NONE',  ( 1.844952762563266676E-30, -1.000000000000000000, 5.284154728361151353E-16 ) ) ;
#114 = CARTESIAN_POINT ( 'NONE',  ( 4.423208137212383487E-14, 2.763999999999998014, 12.66857161172159785 ) ) ;
#115 = CONICAL_SURFACE ( 'NONE', #3, 2.763999999999999346, 0.5235987755982930425 ) ;
#116 = PLANE ( 'NONE',  #101 ) ;
#117 = CALENDAR_DATE ( 2021, 26, 11 ) ;
#118 = EDGE_LOOP ( 'NONE', ( #212 ) ) ;
#119 = PERSON_AND_ORGANIZATION ( #49, #52 ) ;
#120 = ORIENTED_EDGE ( 'NONE', *, *, #53, .F. ) ;
#121 = COORDINATED_UNIVERSAL_TIME_OFFSET ( 1, 0, .AHEAD. ) ;
#122 = ADVANCED_FACE ( 'NONE', ( #143, #34 ), #115, .T. ) ;
#123 = PERSON_AND_ORGANIZATION_ROLE ( 'creator' ) ;
#124 = DIRECTION ( 'NONE',  ( -1.811656242911293756E-30, 1.000000000000000000, -5.295488179650621119E-16 ) ) ;
#125 = APPROVAL_PERSON_ORGANIZATION ( #69, #29, #216 ) ;
#126 = DIRECTION ( 'NONE',  ( -3.491481338843133355E-15, 9.031770143711729009E-17, -1.000000000000000000 ) ) ;
#127 = UNCERTAINTY_MEASURE_WITH_UNIT (LENGTH_MEASURE( 1.000000000000000082E-05 ), #22, 'distance_accuracy_value', 'NONE');
#128 = CARTESIAN_POINT ( 'NONE',  ( 1.396592535537258272E-15, 2.113661891344468183E-16, 0.4000000000000014100 ) ) ;
#129 = EDGE_LOOP ( 'NONE', ( #120 ) ) ;
#130 = AXIS2_PLACEMENT_3D ( 'NONE', #223, #207, #76 ) ;
#131 = DIRECTION ( 'NONE',  ( 0.0000000000000000000, 1.000000000000000000, 0.0000000000000000000 ) ) ;
#132 = CARTESIAN_POINT ( 'NONE',  ( 0.0000000000000000000, 0.0000000000000000000, 0.0000000000000000000 ) ) ;
#133 = CC_DESIGN_PERSON_AND_ORGANIZATION_ASSIGNMENT ( #1, #123, ( #70 ) ) ;
#134 = VERTEX_POINT ( 'NONE', #43 ) ;
#135 = CIRCLE ( 'NONE', #30, 1.999999999999995337 ) ;
#136 = DIRECTION ( 'NONE',  ( -3.491481338843133355E-15, 9.031770143711729009E-17, -1.000000000000000000 ) ) ;
#137 = FACE_OUTER_BOUND ( 'NONE', #83, .T. ) ;
#138 = EDGE_CURVE ( 'NONE', #60, #60, #238, .T. ) ;
#139 = EDGE_LOOP ( 'NONE', ( #220 ) ) ;
#140 = ORIENTED_EDGE ( 'NONE', *, *, #208, .T. ) ;
#141 = EDGE_LOOP ( 'NONE', ( #140 ) ) ;
#142 = DATE_AND_TIME ( #228, #99 ) ;
#143 = FACE_BOUND ( 'NONE', #118, .T. ) ;
#144 = CARTESIAN_POINT ( 'NONE',  ( 0.0000000000000000000, 0.0000000000000000000, 0.0000000000000000000 ) ) ;
#145 = AXIS2_PLACEMENT_3D ( 'NONE', #128, #74, #124 ) ;
#146 = ORIENTED_EDGE ( 'NONE', *, *, #229, .T. ) ;
#147 = MANIFOLD_SOLID_BREP ( 'Corps-Déplacer/Copier1[2]', #173 ) ;
#148 = CARTESIAN_POINT ( 'NONE',  ( 2.793185071074506684E-13, -7.225416114969383207E-15, 80.00000000000000000 ) ) ;
#149 = CIRCLE ( 'NONE', #145, 2.763999999999998458 ) ;
#150 = ADVANCED_FACE ( 'NONE', ( #186 ), #87, .T. ) ;
#151 = DIRECTION ( 'NONE',  ( -3.491481338843133355E-15, 9.031770143711729009E-17, -1.000000000000000000 ) ) ;
#152 = MANIFOLD_SOLID_BREP ( 'Corps-Déplacer/Copier1[1]', #9 ) ;
#153 = CARTESIAN_POINT ( 'NONE',  ( 0.0000000000000000000, 0.0000000000000000000, 0.0000000000000000000 ) ) ;
#154 = CARTESIAN_POINT ( 'NONE',  ( 2.779219145719134403E-13, 1.999999999999988010, 79.60000000000000853 ) ) ;
#155 = APPROVAL_PERSON_ORGANIZATION ( #119, #20, #175 ) ;
#156 = CC_DESIGN_SECURITY_CLASSIFICATION ( #239, ( #70 ) ) ;
#157 = CC_DESIGN_DATE_AND_TIME_ASSIGNMENT ( #84, #4, ( #239 ) ) ;
#158 = COORDINATED_UNIVERSAL_TIME_OFFSET ( 1, 0, .AHEAD. ) ;
#159 = SECURITY_CLASSIFICATION_LEVEL ( 'unclassified' ) ;
#160 = AXIS2_PLACEMENT_3D ( 'NONE', #54, #161, #166 ) ;
#161 = DIRECTION ( 'NONE',  ( 3.491481338843133355E-15, 5.284154728361151353E-16, 1.000000000000000000 ) ) ;
#162 = DIRECTION ( 'NONE',  ( -3.491481338843133355E-15, 9.031770143711729009E-17, -1.000000000000000000 ) ) ;
#163 = ADVANCED_FACE ( 'NONE', ( #97 ), #116, .T. ) ;
#164 = ORIENTED_EDGE ( 'NONE', *, *, #138, .T. ) ;
#165 = PRODUCT_RELATED_PRODUCT_CATEGORY ( 'detail', '', ( #13 ) ) ;
#166 = DIRECTION ( 'NONE',  ( 1.844952762563266676E-30, -1.000000000000000000, 5.284154728361151353E-16 ) ) ;
#167 = MECHANICAL_CONTEXT ( 'NONE', #17, 'mechanical' ) ;
#168 = ADVANCED_BREP_SHAPE_REPRESENTATION ( '321456', ( #152, #147, #226 ), #95 ) ;
#169 =( NAMED_UNIT ( * ) SI_UNIT ( $, .STERADIAN. ) SOLID_ANGLE_UNIT ( ) );
#170 = DIRECTION ( 'NONE',  ( 3.153425691349006731E-31, 1.000000000000000000, 9.031770143711729009E-17 ) ) ;
#171 = DIRECTION ( 'NONE',  ( 0.0000000000000000000, 1.000000000000000000, 0.0000000000000000000 ) ) ;
#172 = VERTEX_POINT ( 'NONE', #41 ) ;
#173 = CLOSED_SHELL ( 'NONE', ( #150, #85, #36, #39 ) ) ;
#174 = CIRCLE ( 'NONE', #130, 2.763999999999999346 ) ;
#175 = APPROVAL_ROLE ( '' ) ;
#176 = DATE_AND_TIME ( #100, #72 ) ;
#177 = AXIS2_PLACEMENT_3D ( 'NONE', #105, #185, #110 ) ;
#178 = ORIENTED_EDGE ( 'NONE', *, *, #138, .F. ) ;
#179 = CIRCLE ( 'NONE', #234, 1.999999999999991784 ) ;
#180 = DATE_TIME_ROLE ( 'creation_date' ) ;
#181 = APPROVAL_ROLE ( '' ) ;
#182 = AXIS2_PLACEMENT_3D ( 'NONE', #144, #200, #35 ) ;
#183 = CARTESIAN_POINT ( 'NONE',  ( -2.336687923040824628E-30, 2.533059892324148965, -6.692540203623320420E-16 ) ) ;
#184 = EDGE_LOOP ( 'NONE', ( #164 ) ) ;
#185 = DIRECTION ( 'NONE',  ( -3.491481338843133355E-15, -5.284154728361151353E-16, -1.000000000000000000 ) ) ;
#186 = FACE_OUTER_BOUND ( 'NONE', #89, .T. ) ;
#187 = DIRECTION ( 'NONE',  ( 1.000000000000000000, 0.0000000000000000000, 0.0000000000000000000 ) ) ;
#188 = CONICAL_SURFACE ( 'NONE', #160, 2.533059892324148965, 0.5235987755982978165 ) ;
#189 = AXIS2_PLACEMENT_3D ( 'NONE', #148, #162, #58 ) ;
#190 = CARTESIAN_POINT ( 'NONE',  ( 4.885231259955590439E-14, -1.263712492114123682E-15, 13.99185842870425134 ) ) ;
#191 = CARTESIAN_POINT ( 'NONE',  ( 2.793185071074506684E-13, 1.599999999999987876, 80.00000000000000000 ) ) ;
#192 = DATE_AND_TIME ( #117, #59 ) ;
#193 = AXIS2_PLACEMENT_3D ( 'NONE', #183, #90, #217 ) ;
#194 = COORDINATED_UNIVERSAL_TIME_OFFSET ( 1, 0, .AHEAD. ) ;
#195 = ORIENTED_EDGE ( 'NONE', *, *, #75, .T. ) ;
#196 = PERSON_AND_ORGANIZATION_ROLE ( 'design_owner' ) ;
#197 = PERSON_AND_ORGANIZATION_ROLE ( 'classification_officer' ) ;
#198 = APPLICATION_CONTEXT ( 'configuration controlled 3d designs of mechanical parts and assemblies' ) ;
#199 = CARTESIAN_POINT ( 'NONE',  ( 4.423208137212384118E-14, -1.144196268462211133E-15, 12.66857161172159785 ) ) ;
#200 = DIRECTION ( 'NONE',  ( -3.491481338843133355E-15, -5.284154728361151353E-16, -1.000000000000000000 ) ) ;
#201 = DIRECTION ( 'NONE',  ( -3.491481338843133355E-15, -5.284154728361151353E-16, -1.000000000000000000 ) ) ;
#202 = CIRCLE ( 'NONE', #189, 1.599999999999994982 ) ;
#203 = CC_DESIGN_APPROVAL ( #93, ( #241 ) ) ;
#204 = DIRECTION ( 'NONE',  ( 0.0000000000000000000, 0.0000000000000000000, 1.000000000000000000 ) ) ;
#205 = DIRECTION ( 'NONE',  ( -3.491481338843133355E-15, 9.031770143711729009E-17, -1.000000000000000000 ) ) ;
#206 = AXIS2_PLACEMENT_3D ( 'NONE', #16, #40, #113 ) ;
#207 = DIRECTION ( 'NONE',  ( -3.491481338843133355E-15, 9.031770143711729009E-17, -1.000000000000000000 ) ) ;
#208 = EDGE_CURVE ( 'NONE', #94, #94, #135, .T. ) ;
#209 = CARTESIAN_POINT ( 'NONE',  ( 2.779219145719134403E-13, -7.189289034394536528E-15, 79.60000000000000853 ) ) ;
#210 = APPROVAL_STATUS ( 'not_yet_approved' ) ;
#211 = EDGE_LOOP ( 'NONE', ( #68 ) ) ;
#212 = ORIENTED_EDGE ( 'NONE', *, *, #232, .T. ) ;
#213 = ORIENTED_EDGE ( 'NONE', *, *, #53, .T. ) ;
#214 = APPROVAL_DATE_TIME ( #176, #93 ) ;
#215 = EDGE_LOOP ( 'NONE', ( #213 ) ) ;
#216 = APPROVAL_ROLE ( '' ) ;
#217 = DIRECTION ( 'NONE',  ( -1.844952762563266676E-30, 1.000000000000000000, -5.284154728361151353E-16 ) ) ;
#218 = DIRECTION ( 'NONE',  ( -3.491481338843133355E-15, 9.031770143711729009E-17, -1.000000000000000000 ) ) ;
#219 = PLANE ( 'NONE',  #42 ) ;
#220 = ORIENTED_EDGE ( 'NONE', *, *, #6, .F. ) ;
#221 = DIRECTION ( 'NONE',  ( -3.491481338843133355E-15, 9.031770143711729009E-17, -1.000000000000000000 ) ) ;
#222 = VERTEX_POINT ( 'NONE', #44 ) ;
#223 = CARTESIAN_POINT ( 'NONE',  ( 4.423208137212384118E-14, -1.144196268462211133E-15, 12.66857161172159785 ) ) ;
#224 = ORIENTED_EDGE ( 'NONE', *, *, #229, .F. ) ;
#225 = COORDINATED_UNIVERSAL_TIME_OFFSET ( 1, 0, .AHEAD. ) ;
#226 = AXIS2_PLACEMENT_3D ( 'NONE', #132, #204, #187 ) ;
#227 = PERSON_AND_ORGANIZATION ( #49, #52 ) ;
#228 = CALENDAR_DATE ( 2021, 26, 11 ) ;
#229 = EDGE_CURVE ( 'NONE', #172, #172, #174, .T. ) ;
#230 = APPLICATION_PROTOCOL_DEFINITION ( 'international standard', 'config_control_design', 1994, #198 ) ;
#231 = FACE_OUTER_BOUND ( 'NONE', #79, .T. ) ;
#232 = EDGE_CURVE ( 'NONE', #134, #134, #179, .T. ) ;
#233 = FACE_OUTER_BOUND ( 'NONE', #139, .T. ) ;
#234 = AXIS2_PLACEMENT_3D ( 'NONE', #190, #151, #171 ) ;
#235 = FACE_BOUND ( 'NONE', #211, .T. ) ;
#236 = DIRECTION ( 'NONE',  ( 3.491481338843133355E-15, -9.031770143711729009E-17, 1.000000000000000000 ) ) ;
#237 = ADVANCED_FACE ( 'NONE', ( #96, #137 ), #19, .T. ) ;
#238 = CIRCLE ( 'NONE', #177, 2.763999999999991797 ) ;
#239 = SECURITY_CLASSIFICATION ( '', '', #159 ) ;
#240 = DIRECTION ( 'NONE',  ( 3.153425691349006731E-31, 1.000000000000000000, 9.031770143711729009E-17 ) ) ;
#241 = PRODUCT_DEFINITION ( 'UNKNOWN', '', #70, #18 ) ;
#242 = VERTEX_POINT ( 'NONE', #23 ) ;
#243 = VERTEX_POINT ( 'NONE', #191 ) ;
ENDSEC;
END-ISO-10303-21;
