ISO-10303-21;
HEADER;
FILE_DESCRIPTION (( 'STEP AP203' ),
    '1' );
FILE_NAME ('321455.step',
    '2021-11-26T10:03:59',
    ( '' ),
    ( '' ),
    'SwSTEP 2.0',
    'SolidWorks 2019',
    '' );
FILE_SCHEMA (( 'CONFIG_CONTROL_DESIGN' ));
ENDSEC;

DATA;
#1 = CC_DESIGN_SECURITY_CLASSIFICATION ( #99, ( #186 ) ) ;
#2 = FACE_OUTER_BOUND ( 'NONE', #114, .T. ) ;
#3 = CARTESIAN_POINT ( 'NONE',  ( 2.779219145719134403E-13, -7.189289034394536528E-15, 79.60000000000000853 ) ) ;
#4 = ADVANCED_FACE ( 'NONE', ( #32 ), #51, .T. ) ;
#5 = VERTEX_POINT ( 'NONE', #228 ) ;
#6 = CARTESIAN_POINT ( 'NONE',  ( 4.426231848748662253E-14, 6.692148107888598832E-15, 12.67723186575944538 ) ) ;
#7 = ADVANCED_FACE ( 'NONE', ( #229 ), #128, .T. ) ;
#8 =( NAMED_UNIT ( * ) PLANE_ANGLE_UNIT ( ) SI_UNIT ( $, .RADIAN. ) );
#9 = COORDINATED_UNIVERSAL_TIME_OFFSET ( 1, 0, .AHEAD. ) ;
#10 = AXIS2_PLACEMENT_3D ( 'NONE', #3, #170, #150 ) ;
#11 = PERSON_AND_ORGANIZATION_ROLE ( 'design_owner' ) ;
#12 = DIRECTION ( 'NONE',  ( 3.491481338843133355E-15, -9.031770143711729009E-17, 1.000000000000000000 ) ) ;
#13 = EDGE_LOOP ( 'NONE', ( #72 ) ) ;
#14 = PRODUCT_DEFINITION_SHAPE ( 'NONE', 'NONE',  #44 ) ;
#15 = CALENDAR_DATE ( 2021, 26, 11 ) ;
#16 = AXIS2_PLACEMENT_3D ( 'NONE', #243, #242, #25 ) ;
#17 = DIRECTION ( 'NONE',  ( 1.843108218173123199E-30, -1.000000000000000000, 5.278871743257887869E-16 ) ) ;
#18 = ORIENTED_EDGE ( 'NONE', *, *, #98, .F. ) ;
#19 = DIRECTION ( 'NONE',  ( -1.843108218173123199E-30, 1.000000000000000000, -5.278871743257885897E-16 ) ) ;
#20 = CLOSED_SHELL ( 'NONE', ( #4, #78, #90, #217, #154 ) ) ;
#21 =( GEOMETRIC_REPRESENTATION_CONTEXT ( 3 ) GLOBAL_UNCERTAINTY_ASSIGNED_CONTEXT ( ( #120 ) ) GLOBAL_UNIT_ASSIGNED_CONTEXT ( ( #192, #8, #208 ) ) REPRESENTATION_CONTEXT ( 'NONE', 'WORKASPACE' ) );
#22 = ADVANCED_FACE ( 'NONE', ( #30, #93 ), #137, .T. ) ;
#23 = FACE_OUTER_BOUND ( 'NONE', #236, .T. ) ;
#24 = CIRCLE ( 'NONE', #10, 1.999999999999995337 ) ;
#25 = DIRECTION ( 'NONE',  ( 3.153425691349006731E-31, 1.000000000000000000, 9.031770143711729009E-17 ) ) ;
#26 = CARTESIAN_POINT ( 'NONE',  ( 0.0000000000000000000, 0.0000000000000000000, 0.0000000000000000000 ) ) ;
#27 = AXIS2_PLACEMENT_3D ( 'NONE', #60, #152, #63 ) ;
#28 = EDGE_CURVE ( 'NONE', #50, #50, #237, .T. ) ;
#29 = VERTEX_POINT ( 'NONE', #176 ) ;
#30 = FACE_OUTER_BOUND ( 'NONE', #76, .T. ) ;
#31 = COORDINATED_UNIVERSAL_TIME_OFFSET ( 1, 0, .AHEAD. ) ;
#32 = FACE_OUTER_BOUND ( 'NONE', #214, .T. ) ;
#33 = AXIS2_PLACEMENT_3D ( 'NONE', #6, #141, #189 ) ;
#34 = CIRCLE ( 'NONE', #108, 2.528059892324147739 ) ;
#35 = PERSON_AND_ORGANIZATION ( #183, #112 ) ;
#36 = DATE_AND_TIME ( #196, #123 ) ;
#37 = ORIENTED_EDGE ( 'NONE', *, *, #98, .T. ) ;
#38 = COORDINATED_UNIVERSAL_TIME_OFFSET ( 1, 0, .AHEAD. ) ;
#39 = DIRECTION ( 'NONE',  ( -3.491481338843133355E-15, -5.278871743257886883E-16, -1.000000000000000000 ) ) ;
#40 = DIRECTION ( 'NONE',  ( -1.814939418414939419E-30, 1.000000000000000000, -5.305084932422733355E-16 ) ) ;
#41 = CARTESIAN_POINT ( 'NONE',  ( 2.793185071074506684E-13, -7.225416114969383207E-15, 80.00000000000000000 ) ) ;
#42 = APPROVAL ( #177, 'UNSPECIFIED' ) ;
#43 = CALENDAR_DATE ( 2021, 26, 11 ) ;
#44 = PRODUCT_DEFINITION ( 'UNKNOWN', '', #186, #56 ) ;
#45 = APPLICATION_PROTOCOL_DEFINITION ( 'international standard', 'config_control_design', 1994, #109 ) ;
#46 = AXIS2_PLACEMENT_3D ( 'NONE', #52, #12, #156 ) ;
#47 = CIRCLE ( 'NONE', #188, 2.758999999999999453 ) ;
#48 = CARTESIAN_POINT ( 'NONE',  ( 2.793185071074506684E-13, 1.599999999999987876, 80.00000000000000000 ) ) ;
#49 = ADVANCED_FACE ( 'NONE', ( #58, #79 ), #53, .T. ) ;
#50 = VERTEX_POINT ( 'NONE', #69 ) ;
#51 = PLANE ( 'NONE',  #46 ) ;
#52 = CARTESIAN_POINT ( 'NONE',  ( 2.793185071074506684E-13, -7.225416114969383207E-15, 80.00000000000000000 ) ) ;
#53 = CYLINDRICAL_SURFACE ( 'NONE', #95, 2.758999999999994568 ) ;
#54 = PRODUCT_RELATED_PRODUCT_CATEGORY ( 'detail', '', ( #92 ) ) ;
#55 = PERSON_AND_ORGANIZATION ( #183, #112 ) ;
#56 = DESIGN_CONTEXT ( 'detailed design', #68, 'design' ) ;
#57 = DIRECTION ( 'NONE',  ( -3.491481338843133355E-15, -5.278871743257886883E-16, -1.000000000000000000 ) ) ;
#58 = FACE_OUTER_BOUND ( 'NONE', #212, .T. ) ;
#59 = MANIFOLD_SOLID_BREP ( 'Corps-Déplacer/Copier1[1]', #20 ) ;
#60 = CARTESIAN_POINT ( 'NONE',  ( 4.885231259955590439E-14, -1.263712492114123682E-15, 13.99185842870425134 ) ) ;
#61 = CC_DESIGN_PERSON_AND_ORGANIZATION_ASSIGNMENT ( #142, #207, ( #44 ) ) ;
#62 = DIRECTION ( 'NONE',  ( -3.491481338843133355E-15, -5.278871743257886883E-16, -1.000000000000000000 ) ) ;
#63 = DIRECTION ( 'NONE',  ( 0.0000000000000000000, 1.000000000000000000, 0.0000000000000000000 ) ) ;
#64 = LOCAL_TIME ( 11, 3, 59.00000000000000000, #9 ) ;
#65 = ORIENTED_EDGE ( 'NONE', *, *, #193, .F. ) ;
#66 = EDGE_CURVE ( 'NONE', #113, #113, #34, .T. ) ;
#67 = CARTESIAN_POINT ( 'NONE',  ( 0.0000000000000000000, 0.0000000000000000000, 0.0000000000000000000 ) ) ;
#68 = APPLICATION_CONTEXT ( 'configuration controlled 3d designs of mechanical parts and assemblies' ) ;
#69 = CARTESIAN_POINT ( 'NONE',  ( 4.426231848748661622E-14, 2.758999999999998121, 12.67723186575944361 ) ) ;
#70 = APPROVAL_DATE_TIME ( #75, #241 ) ;
#71 = AXIS2_PLACEMENT_3D ( 'NONE', #26, #175, #88 ) ;
#72 = ORIENTED_EDGE ( 'NONE', *, *, #134, .F. ) ;
#73 = DATE_AND_TIME ( #159, #64 ) ;
#74 = VERTEX_POINT ( 'NONE', #48 ) ;
#75 = DATE_AND_TIME ( #232, #132 ) ;
#76 = EDGE_LOOP ( 'NONE', ( #222 ) ) ;
#77 = EDGE_LOOP ( 'NONE', ( #18 ) ) ;
#78 = ADVANCED_FACE ( 'NONE', ( #234, #182 ), #135, .T. ) ;
#79 = FACE_OUTER_BOUND ( 'NONE', #194, .T. ) ;
#80 = APPROVAL_ROLE ( '' ) ;
#81 = EDGE_LOOP ( 'NONE', ( #164 ) ) ;
#82 = CIRCLE ( 'NONE', #27, 1.999999999999991784 ) ;
#83 = FACE_OUTER_BOUND ( 'NONE', #216, .T. ) ;
#84 = ADVANCED_BREP_SHAPE_REPRESENTATION ( '321455', ( #59, #139, #71 ), #21 ) ;
#85 = EDGE_LOOP ( 'NONE', ( #131 ) ) ;
#86 = CARTESIAN_POINT ( 'NONE',  ( -2.329743981788248858E-30, 2.528059892324147739, -6.672651965426760446E-16 ) ) ;
#87 = CARTESIAN_POINT ( 'NONE',  ( 4.426231848748661622E-14, -1.144978442700770824E-15, 12.67723186575944361 ) ) ;
#88 = DIRECTION ( 'NONE',  ( 1.000000000000000000, 0.0000000000000000000, 0.0000000000000000000 ) ) ;
#89 = APPROVAL_ROLE ( '' ) ;
#90 = ADVANCED_FACE ( 'NONE', ( #83, #105 ), #172, .T. ) ;
#91 = DATE_AND_TIME ( #43, #168 ) ;
#92 = PRODUCT ( '321455', '321455', '', ( #126 ) ) ;
#93 = FACE_BOUND ( 'NONE', #81, .T. ) ;
#94 = ORIENTED_EDGE ( 'NONE', *, *, #193, .T. ) ;
#95 = AXIS2_PLACEMENT_3D ( 'NONE', #162, #39, #19 ) ;
#96 = EDGE_LOOP ( 'NONE', ( #116 ) ) ;
#97 = APPROVAL_DATE_TIME ( #73, #42 ) ;
#98 = EDGE_CURVE ( 'NONE', #5, #5, #24, .T. ) ;
#99 = SECURITY_CLASSIFICATION ( '', '', #210 ) ;
#100 = PERSON_AND_ORGANIZATION_ROLE ( 'creator' ) ;
#101 = CARTESIAN_POINT ( 'NONE',  ( 2.779219145719134403E-13, -7.189289034394536528E-15, 79.60000000000000853 ) ) ;
#102 = CARTESIAN_POINT ( 'NONE',  ( 1.396592535537258272E-15, 2.111548697303162395E-16, 0.4000000000000014100 ) ) ;
#103 = CC_DESIGN_DATE_AND_TIME_ASSIGNMENT ( #213, #166, ( #99 ) ) ;
#104 = CC_DESIGN_APPROVAL ( #187, ( #99 ) ) ;
#105 = FACE_OUTER_BOUND ( 'NONE', #13, .T. ) ;
#106 = PLANE ( 'NONE',  #161 ) ;
#107 = CARTESIAN_POINT ( 'NONE',  ( 4.885231259955590439E-14, 1.999999999999990452, 13.99185842870425134 ) ) ;
#108 = AXIS2_PLACEMENT_3D ( 'NONE', #133, #200, #119 ) ;
#109 = APPLICATION_CONTEXT ( 'configuration controlled 3d designs of mechanical parts and assemblies' ) ;
#110 = DATE_TIME_ROLE ( 'creation_date' ) ;
#111 = VERTEX_POINT ( 'NONE', #107 ) ;
#112 = ORGANIZATION ( 'UNSPECIFIED', 'UNSPECIFIED', '' ) ;
#113 = VERTEX_POINT ( 'NONE', #223 ) ;
#114 = EDGE_LOOP ( 'NONE', ( #209 ) ) ;
#115 = APPROVAL_PERSON_ORGANIZATION ( #35, #42, #89 ) ;
#116 = ORIENTED_EDGE ( 'NONE', *, *, #66, .T. ) ;
#117 = ORIENTED_EDGE ( 'NONE', *, *, #191, .T. ) ;
#118 = PERSON_AND_ORGANIZATION_ROLE ( 'classification_officer' ) ;
#119 = DIRECTION ( 'NONE',  ( -1.843108218173123199E-30, 1.000000000000000000, -5.278871743257887869E-16 ) ) ;
#120 = UNCERTAINTY_MEASURE_WITH_UNIT (LENGTH_MEASURE( 1.000000000000000082E-05 ), #192, 'distance_accuracy_value', 'NONE');
#121 = FACE_OUTER_BOUND ( 'NONE', #96, .T. ) ;
#122 = DIRECTION ( 'NONE',  ( -3.491481338843133355E-15, 9.031770143711729009E-17, -1.000000000000000000 ) ) ;
#123 = LOCAL_TIME ( 11, 3, 59.00000000000000000, #38 ) ;
#124 = CARTESIAN_POINT ( 'NONE',  ( 1.396592535537253342E-15, 2.758999999999997677, 0.3999999999999999667 ) ) ;
#125 = APPROVAL_STATUS ( 'not_yet_approved' ) ;
#126 = MECHANICAL_CONTEXT ( 'NONE', #109, 'mechanical' ) ;
#127 = DIRECTION ( 'NONE',  ( 0.0000000000000000000, 1.000000000000000000, 0.0000000000000000000 ) ) ;
#128 = PLANE ( 'NONE',  #33 ) ;
#129 = AXIS2_PLACEMENT_3D ( 'NONE', #41, #122, #171 ) ;
#130 = APPROVAL_DATE_TIME ( #36, #187 ) ;
#131 = ORIENTED_EDGE ( 'NONE', *, *, #28, .F. ) ;
#132 = LOCAL_TIME ( 11, 3, 59.00000000000000000, #227 ) ;
#133 = CARTESIAN_POINT ( 'NONE',  ( 4.659487963576497717E-30, 7.044814782577105680E-31, 1.334530393085352089E-15 ) ) ;
#134 = EDGE_CURVE ( 'NONE', #111, #111, #82, .T. ) ;
#135 = CONICAL_SURFACE ( 'NONE', #143, 1.999999999999995337, 0.7853981633974516097 ) ;
#136 = DIRECTION ( 'NONE',  ( -3.491481338843133355E-15, 9.031770143711729009E-17, -1.000000000000000000 ) ) ;
#137 = CONICAL_SURFACE ( 'NONE', #167, 2.528059892324147739, 0.5235987755982978165 ) ;
#138 = PLANE ( 'NONE',  #16 ) ;
#139 = MANIFOLD_SOLID_BREP ( 'Corps-Déplacer/Copier1[2]', #147 ) ;
#140 = EDGE_CURVE ( 'NONE', #205, #205, #226, .T. ) ;
#141 = DIRECTION ( 'NONE',  ( 3.491481338843133355E-15, 5.278871743257886883E-16, 1.000000000000000000 ) ) ;
#142 = PERSON_AND_ORGANIZATION ( #183, #112 ) ;
#143 = AXIS2_PLACEMENT_3D ( 'NONE', #101, #240, #144 ) ;
#144 = DIRECTION ( 'NONE',  ( 0.0000000000000000000, 1.000000000000000000, 0.0000000000000000000 ) ) ;
#145 = PERSON_AND_ORGANIZATION ( #183, #112 ) ;
#146 = COORDINATED_UNIVERSAL_TIME_OFFSET ( 1, 0, .AHEAD. ) ;
#147 = CLOSED_SHELL ( 'NONE', ( #7, #49, #22, #173 ) ) ;
#148 = CC_DESIGN_APPROVAL ( #42, ( #186 ) ) ;
#149 = DIRECTION ( 'NONE',  ( -1.843108218173123199E-30, 1.000000000000000000, -5.278871743257886883E-16 ) ) ;
#150 = DIRECTION ( 'NONE',  ( 0.0000000000000000000, 1.000000000000000000, 0.0000000000000000000 ) ) ;
#151 = CC_DESIGN_DATE_AND_TIME_ASSIGNMENT ( #91, #110, ( #44 ) ) ;
#152 = DIRECTION ( 'NONE',  ( -3.491481338843133355E-15, 9.031770143711729009E-17, -1.000000000000000000 ) ) ;
#153 = AXIS2_PLACEMENT_3D ( 'NONE', #67, #201, #185 ) ;
#154 = ADVANCED_FACE ( 'NONE', ( #23 ), #138, .T. ) ;
#155 = PERSON_AND_ORGANIZATION ( #183, #112 ) ;
#156 = DIRECTION ( 'NONE',  ( -3.153425691349006731E-31, -1.000000000000000000, -9.031770143711729009E-17 ) ) ;
#157 = PERSON_AND_ORGANIZATION ( #183, #112 ) ;
#158 = APPROVAL_PERSON_ORGANIZATION ( #215, #187, #80 ) ;
#159 = CALENDAR_DATE ( 2021, 26, 11 ) ;
#160 = CC_DESIGN_PERSON_AND_ORGANIZATION_ASSIGNMENT ( #55, #169, ( #186 ) ) ;
#161 = AXIS2_PLACEMENT_3D ( 'NONE', #86, #62, #149 ) ;
#162 = CARTESIAN_POINT ( 'NONE',  ( 0.0000000000000000000, 0.0000000000000000000, 0.0000000000000000000 ) ) ;
#163 = DIRECTION ( 'NONE',  ( 3.491481338843133355E-15, 5.278871743257886883E-16, 1.000000000000000000 ) ) ;
#164 = ORIENTED_EDGE ( 'NONE', *, *, #66, .F. ) ;
#165 = EDGE_LOOP ( 'NONE', ( #94 ) ) ;
#166 = DATE_TIME_ROLE ( 'classification_date' ) ;
#167 = AXIS2_PLACEMENT_3D ( 'NONE', #239, #163, #17 ) ;
#168 = LOCAL_TIME ( 11, 3, 59.00000000000000000, #31 ) ;
#169 = PERSON_AND_ORGANIZATION_ROLE ( 'design_supplier' ) ;
#170 = DIRECTION ( 'NONE',  ( -3.491481338843133355E-15, 9.031770143711729009E-17, -1.000000000000000000 ) ) ;
#171 = DIRECTION ( 'NONE',  ( 0.0000000000000000000, 1.000000000000000000, 0.0000000000000000000 ) ) ;
#172 = CYLINDRICAL_SURFACE ( 'NONE', #153, 1.999999999999993561 ) ;
#173 = ADVANCED_FACE ( 'NONE', ( #121 ), #106, .T. ) ;
#174 = AXIS2_PLACEMENT_3D ( 'NONE', #87, #136, #127 ) ;
#175 = DIRECTION ( 'NONE',  ( 0.0000000000000000000, 0.0000000000000000000, 1.000000000000000000 ) ) ;
#176 = CARTESIAN_POINT ( 'NONE',  ( 4.426231848748661622E-14, 2.758999999999998121, 12.67723186575944361 ) ) ;
#177 = APPROVAL_STATUS ( 'not_yet_approved' ) ;
#178 = AXIS2_PLACEMENT_3D ( 'NONE', #235, #57, #198 ) ;
#179 = ORIENTED_EDGE ( 'NONE', *, *, #28, .T. ) ;
#180 = CC_DESIGN_PERSON_AND_ORGANIZATION_ASSIGNMENT ( #211, #118, ( #99 ) ) ;
#181 = CIRCLE ( 'NONE', #129, 1.599999999999994982 ) ;
#182 = FACE_OUTER_BOUND ( 'NONE', #77, .T. ) ;
#183 = PERSON ( 'UNSPECIFIED', 'UNSPECIFIED', 'UNSPECIFIED', ('UNSPECIFIED'), ('UNSPECIFIED'), ('UNSPECIFIED') ) ;
#184 = DIRECTION ( 'NONE',  ( -3.491481338843133355E-15, -5.278871743257886883E-16, -1.000000000000000000 ) ) ;
#185 = DIRECTION ( 'NONE',  ( 3.153425691349006731E-31, 1.000000000000000000, 9.031770143711729009E-17 ) ) ;
#186 = PRODUCT_DEFINITION_FORMATION_WITH_SPECIFIED_SOURCE ( 'ANY', '', #92, .NOT_KNOWN. ) ;
#187 = APPROVAL ( #233, 'UNSPECIFIED' ) ;
#188 = AXIS2_PLACEMENT_3D ( 'NONE', #218, #220, #202 ) ;
#189 = DIRECTION ( 'NONE',  ( 1.843108218173123199E-30, -1.000000000000000000, 5.278871743257886883E-16 ) ) ;
#190 = APPLICATION_PROTOCOL_DEFINITION ( 'international standard', 'config_control_design', 1994, #68 ) ;
#191 = EDGE_CURVE ( 'NONE', #29, #29, #47, .T. ) ;
#192 =( LENGTH_UNIT ( ) NAMED_UNIT ( * ) SI_UNIT ( .MILLI., .METRE. ) );
#193 = EDGE_CURVE ( 'NONE', #74, #74, #181, .T. ) ;
#194 = EDGE_LOOP ( 'NONE', ( #225 ) ) ;
#195 = EDGE_LOOP ( 'NONE', ( #230 ) ) ;
#196 = CALENDAR_DATE ( 2021, 26, 11 ) ;
#197 = SHAPE_DEFINITION_REPRESENTATION ( #14, #84 ) ;
#198 = DIRECTION ( 'NONE',  ( -2.233771591895314743E-30, 1.000000000000000000, -6.287508068056586962E-16 ) ) ;
#199 = CC_DESIGN_PERSON_AND_ORGANIZATION_ASSIGNMENT ( #145, #100, ( #186 ) ) ;
#200 = DIRECTION ( 'NONE',  ( -3.491481338843133355E-15, -5.278871743257886883E-16, -1.000000000000000000 ) ) ;
#201 = DIRECTION ( 'NONE',  ( -3.491481338843133355E-15, 9.031770143711729009E-17, -1.000000000000000000 ) ) ;
#202 = DIRECTION ( 'NONE',  ( 0.0000000000000000000, 1.000000000000000000, 0.0000000000000000000 ) ) ;
#203 = FACE_BOUND ( 'NONE', #195, .T. ) ;
#204 = CONICAL_SURFACE ( 'NONE', #174, 2.758999999999999453, 0.5235987755982931535 ) ;
#205 = VERTEX_POINT ( 'NONE', #124 ) ;
#206 = LOCAL_TIME ( 11, 3, 59.00000000000000000, #146 ) ;
#207 = PERSON_AND_ORGANIZATION_ROLE ( 'creator' ) ;
#208 =( NAMED_UNIT ( * ) SI_UNIT ( $, .STERADIAN. ) SOLID_ANGLE_UNIT ( ) );
#209 = ORIENTED_EDGE ( 'NONE', *, *, #191, .F. ) ;
#210 = SECURITY_CLASSIFICATION_LEVEL ( 'unclassified' ) ;
#211 = PERSON_AND_ORGANIZATION ( #183, #112 ) ;
#212 = EDGE_LOOP ( 'NONE', ( #179 ) ) ;
#213 = DATE_AND_TIME ( #15, #206 ) ;
#214 = EDGE_LOOP ( 'NONE', ( #65 ) ) ;
#215 = PERSON_AND_ORGANIZATION ( #183, #112 ) ;
#216 = EDGE_LOOP ( 'NONE', ( #37 ) ) ;
#217 = ADVANCED_FACE ( 'NONE', ( #203, #2 ), #204, .T. ) ;
#218 = CARTESIAN_POINT ( 'NONE',  ( 4.426231848748661622E-14, -1.144978442700770824E-15, 12.67723186575944361 ) ) ;
#219 = CC_DESIGN_APPROVAL ( #241, ( #44 ) ) ;
#220 = DIRECTION ( 'NONE',  ( -3.491481338843133355E-15, 9.031770143711729009E-17, -1.000000000000000000 ) ) ;
#221 = AXIS2_PLACEMENT_3D ( 'NONE', #102, #184, #40 ) ;
#222 = ORIENTED_EDGE ( 'NONE', *, *, #140, .T. ) ;
#223 = CARTESIAN_POINT ( 'NONE',  ( 0.0000000000000000000, 2.528059892324147739, 0.0000000000000000000 ) ) ;
#224 = APPROVAL_ROLE ( '' ) ;
#225 = ORIENTED_EDGE ( 'NONE', *, *, #140, .F. ) ;
#226 = CIRCLE ( 'NONE', #221, 2.758999999999997677 ) ;
#227 = COORDINATED_UNIVERSAL_TIME_OFFSET ( 1, 0, .AHEAD. ) ;
#228 = CARTESIAN_POINT ( 'NONE',  ( 2.779219145719134403E-13, 1.999999999999988010, 79.60000000000000853 ) ) ;
#229 = FACE_OUTER_BOUND ( 'NONE', #85, .T. ) ;
#230 = ORIENTED_EDGE ( 'NONE', *, *, #134, .T. ) ;
#231 = CC_DESIGN_PERSON_AND_ORGANIZATION_ASSIGNMENT ( #157, #11, ( #92 ) ) ;
#232 = CALENDAR_DATE ( 2021, 26, 11 ) ;
#233 = APPROVAL_STATUS ( 'not_yet_approved' ) ;
#234 = FACE_BOUND ( 'NONE', #165, .T. ) ;
#235 = CARTESIAN_POINT ( 'NONE',  ( 4.426231848748662253E-14, 6.692148107888599621E-15, 12.67723186575944538 ) ) ;
#236 = EDGE_LOOP ( 'NONE', ( #117 ) ) ;
#237 = CIRCLE ( 'NONE', #178, 2.758999999999991459 ) ;
#238 = APPROVAL_PERSON_ORGANIZATION ( #155, #241, #224 ) ;
#239 = CARTESIAN_POINT ( 'NONE',  ( 4.659487963576497717E-30, 7.044814782577105680E-31, 1.334530393085352089E-15 ) ) ;
#240 = DIRECTION ( 'NONE',  ( -3.491481338843133355E-15, 9.031770143711729009E-17, -1.000000000000000000 ) ) ;
#241 = APPROVAL ( #125, 'UNSPECIFIED' ) ;
#242 = DIRECTION ( 'NONE',  ( -3.491481338843133355E-15, 9.031770143711729009E-17, -1.000000000000000000 ) ) ;
#243 = CARTESIAN_POINT ( 'NONE',  ( 4.426231848748662253E-14, 2.758999999999998121, 12.67723186575944538 ) ) ;
ENDSEC;
END-ISO-10303-21;
