ISO-10303-21;
HEADER;
FILE_DESCRIPTION (( 'STEP AP203' ),
    '1' );
FILE_NAME ('321454.step',
    '2021-11-26T10:03:59',
    ( '' ),
    ( '' ),
    'SwSTEP 2.0',
    'SolidWorks 2019',
    '' );
FILE_SCHEMA (( 'CONFIG_CONTROL_DESIGN' ));
ENDSEC;

DATA;
#1 = ORIENTED_EDGE ( 'NONE', *, *, #43, .T. ) ;
#2 = APPROVAL ( #97, 'UNSPECIFIED' ) ;
#3 = ORIENTED_EDGE ( 'NONE', *, *, #153, .F. ) ;
#4 = ORGANIZATION ( 'UNSPECIFIED', 'UNSPECIFIED', '' ) ;
#5 = ORIENTED_EDGE ( 'NONE', *, *, #242, .T. ) ;
#6 = PERSON_AND_ORGANIZATION ( #8, #4 ) ;
#7 = CARTESIAN_POINT ( 'NONE',  ( 4.429255560284938495E-14, -1.145760616939330317E-15, 12.68589211979728759 ) ) ;
#8 = PERSON ( 'UNSPECIFIED', 'UNSPECIFIED', 'UNSPECIFIED', ('UNSPECIFIED'), ('UNSPECIFIED'), ('UNSPECIFIED') ) ;
#9 = ORIENTED_EDGE ( 'NONE', *, *, #230, .F. ) ;
#10 = CIRCLE ( 'NONE', #183, 1.599999999999994982 ) ;
#11 = FACE_OUTER_BOUND ( 'NONE', #209, .T. ) ;
#12 = APPROVAL_DATE_TIME ( #31, #126 ) ;
#13 = CARTESIAN_POINT ( 'NONE',  ( 0.0000000000000000000, 0.0000000000000000000, 0.0000000000000000000 ) ) ;
#14 = DIRECTION ( 'NONE',  ( -3.491481338843133355E-15, 9.031770143711729009E-17, -1.000000000000000000 ) ) ;
#15 = AXIS2_PLACEMENT_3D ( 'NONE', #141, #27, #101 ) ;
#16 = CC_DESIGN_PERSON_AND_ORGANIZATION_ASSIGNMENT ( #6, #28, ( #171 ) ) ;
#17 = PERSON_AND_ORGANIZATION ( #8, #4 ) ;
#18 = CARTESIAN_POINT ( 'NONE',  ( 4.429255560284938495E-14, 2.753999999999998227, 12.68589211979728759 ) ) ;
#19 = PERSON_AND_ORGANIZATION_ROLE ( 'design_supplier' ) ;
#20 = CIRCLE ( 'NONE', #204, 2.753999999999997783 ) ;
#21 = AXIS2_PLACEMENT_3D ( 'NONE', #213, #180, #89 ) ;
#22 = ADVANCED_FACE ( 'NONE', ( #116 ), #176, .T. ) ;
#23 = EDGE_LOOP ( 'NONE', ( #84 ) ) ;
#24 = LOCAL_TIME ( 11, 3, 59.00000000000000000, #137 ) ;
#25 = CC_DESIGN_SECURITY_CLASSIFICATION ( #61, ( #78 ) ) ;
#26 = CC_DESIGN_PERSON_AND_ORGANIZATION_ASSIGNMENT ( #57, #19, ( #78 ) ) ;
#27 = DIRECTION ( 'NONE',  ( -3.491481338843133355E-15, -5.273595971205574389E-16, -1.000000000000000000 ) ) ;
#28 = PERSON_AND_ORGANIZATION_ROLE ( 'creator' ) ;
#29 = DIRECTION ( 'NONE',  ( -3.491481338843133355E-15, -5.273595971205574389E-16, -1.000000000000000000 ) ) ;
#30 = DIRECTION ( 'NONE',  ( -3.491481338843133355E-15, -5.273595971205574389E-16, -1.000000000000000000 ) ) ;
#31 = DATE_AND_TIME ( #52, #24 ) ;
#32 = LOCAL_TIME ( 11, 3, 59.00000000000000000, #203 ) ;
#33 = PLANE ( 'NONE',  #148 ) ;
#34 = ADVANCED_BREP_SHAPE_REPRESENTATION ( '321454', ( #50, #124, #109 ), #215 ) ;
#35 = CARTESIAN_POINT ( 'NONE',  ( 2.779219145719134403E-13, 1.999999999999988010, 79.60000000000000853 ) ) ;
#36 = LOCAL_TIME ( 11, 3, 59.00000000000000000, #241 ) ;
#37 = DIRECTION ( 'NONE',  ( 0.0000000000000000000, 1.000000000000000000, 0.0000000000000000000 ) ) ;
#38 =( LENGTH_UNIT ( ) NAMED_UNIT ( * ) SI_UNIT ( .MILLI., .METRE. ) );
#39 = PERSON_AND_ORGANIZATION ( #8, #4 ) ;
#40 = ADVANCED_FACE ( 'NONE', ( #136 ), #194, .T. ) ;
#41 = CLOSED_SHELL ( 'NONE', ( #63, #174, #167, #22 ) ) ;
#42 = ORIENTED_EDGE ( 'NONE', *, *, #83, .F. ) ;
#43 = EDGE_CURVE ( 'NONE', #53, #53, #125, .T. ) ;
#44 = EDGE_LOOP ( 'NONE', ( #111 ) ) ;
#45 = CARTESIAN_POINT ( 'NONE',  ( 4.645624880648018741E-30, 7.016835055585693992E-31, 1.330559848327099851E-15 ) ) ;
#46 = CARTESIAN_POINT ( 'NONE',  ( 4.645624880648018741E-30, 7.016835055585693992E-31, 1.330559848327099851E-15 ) ) ;
#47 = APPROVAL ( #221, 'UNSPECIFIED' ) ;
#48 = CARTESIAN_POINT ( 'NONE',  ( 4.429255560284938495E-14, -1.145760616939330317E-15, 12.68589211979728759 ) ) ;
#49 = APPROVAL_ROLE ( '' ) ;
#50 = MANIFOLD_SOLID_BREP ( 'Corps-Déplacer/Copier1[1]', #98 ) ;
#51 = DIRECTION ( 'NONE',  ( -3.153425691349006731E-31, -1.000000000000000000, -9.031770143711729009E-17 ) ) ;
#52 = CALENDAR_DATE ( 2021, 26, 11 ) ;
#53 = VERTEX_POINT ( 'NONE', #18 ) ;
#54 = DATE_AND_TIME ( #145, #36 ) ;
#55 = CARTESIAN_POINT ( 'NONE',  ( 4.885231259955590439E-14, 1.999999999999990452, 13.99185842870425134 ) ) ;
#56 = FACE_OUTER_BOUND ( 'NONE', #44, .T. ) ;
#57 = PERSON_AND_ORGANIZATION ( #8, #4 ) ;
#58 = DIRECTION ( 'NONE',  ( -3.491481338843133355E-15, 9.031770143711729009E-17, -1.000000000000000000 ) ) ;
#59 = CALENDAR_DATE ( 2021, 26, 11 ) ;
#60 = CIRCLE ( 'NONE', #175, 1.999999999999995337 ) ;
#61 = SECURITY_CLASSIFICATION ( '', '', #202 ) ;
#62 = APPLICATION_PROTOCOL_DEFINITION ( 'international standard', 'config_control_design', 1994, #143 ) ;
#63 = ADVANCED_FACE ( 'NONE', ( #104 ), #140, .T. ) ;
#64 = PRODUCT ( '321454', '321454', '', ( #218 ) ) ;
#65 = CARTESIAN_POINT ( 'NONE',  ( 1.396592535537258272E-15, 2.109438388482237398E-16, 0.4000000000000014100 ) ) ;
#66 = DIRECTION ( 'NONE',  ( -3.491481338843133355E-15, 9.031770143711729009E-17, -1.000000000000000000 ) ) ;
#67 = DIRECTION ( 'NONE',  ( 1.000000000000000000, 0.0000000000000000000, 0.0000000000000000000 ) ) ;
#68 = CARTESIAN_POINT ( 'NONE',  ( -2.322812440324009370E-30, 2.523059892324147846, -6.652799241635499254E-16 ) ) ;
#69 = CYLINDRICAL_SURFACE ( 'NONE', #133, 2.753999999999994674 ) ;
#70 = APPLICATION_PROTOCOL_DEFINITION ( 'international standard', 'config_control_design', 1994, #205 ) ;
#71 = CYLINDRICAL_SURFACE ( 'NONE', #232, 1.999999999999993561 ) ;
#72 = CC_DESIGN_PERSON_AND_ORGANIZATION_ASSIGNMENT ( #17, #162, ( #78 ) ) ;
#73 = APPROVAL_ROLE ( '' ) ;
#74 = VERTEX_POINT ( 'NONE', #199 ) ;
#75 = AXIS2_PLACEMENT_3D ( 'NONE', #68, #30, #90 ) ;
#76 = APPROVAL_DATE_TIME ( #164, #47 ) ;
#77 = APPROVAL_STATUS ( 'not_yet_approved' ) ;
#78 = PRODUCT_DEFINITION_FORMATION_WITH_SPECIFIED_SOURCE ( 'ANY', '', #64, .NOT_KNOWN. ) ;
#79 = CC_DESIGN_DATE_AND_TIME_ASSIGNMENT ( #229, #120, ( #171 ) ) ;
#80 = APPROVAL_DATE_TIME ( #54, #2 ) ;
#81 = EDGE_LOOP ( 'NONE', ( #42 ) ) ;
#82 = EDGE_LOOP ( 'NONE', ( #5 ) ) ;
#83 = EDGE_CURVE ( 'NONE', #220, #220, #187, .T. ) ;
#84 = ORIENTED_EDGE ( 'NONE', *, *, #211, .F. ) ;
#85 = PRODUCT_DEFINITION_SHAPE ( 'NONE', 'NONE',  #171 ) ;
#86 = DIRECTION ( 'NONE',  ( 0.0000000000000000000, 1.000000000000000000, 0.0000000000000000000 ) ) ;
#87 = CONICAL_SURFACE ( 'NONE', #151, 2.523059892324147846, 0.5235987755982978165 ) ;
#88 = EDGE_LOOP ( 'NONE', ( #99 ) ) ;
#89 = DIRECTION ( 'NONE',  ( 1.841266192206258925E-30, -1.000000000000000000, 5.273595971205574389E-16 ) ) ;
#90 = DIRECTION ( 'NONE',  ( -1.841266192206258925E-30, 1.000000000000000000, -5.273595971205574389E-16 ) ) ;
#91 = APPROVAL_ROLE ( '' ) ;
#92 = APPROVAL_PERSON_ORGANIZATION ( #214, #47, #91 ) ;
#93 = DIRECTION ( 'NONE',  ( 0.0000000000000000000, 0.0000000000000000000, 1.000000000000000000 ) ) ;
#94 = CARTESIAN_POINT ( 'NONE',  ( 1.396592535537253342E-15, 2.753999999999997783, 0.3999999999999999667 ) ) ;
#95 = CIRCLE ( 'NONE', #200, 1.999999999999991784 ) ;
#96 = DIRECTION ( 'NONE',  ( 3.153425691349006731E-31, 1.000000000000000000, 9.031770143711729009E-17 ) ) ;
#97 = APPROVAL_STATUS ( 'not_yet_approved' ) ;
#98 = CLOSED_SHELL ( 'NONE', ( #132, #150, #198, #118, #40 ) ) ;
#99 = ORIENTED_EDGE ( 'NONE', *, *, #43, .F. ) ;
#100 = EDGE_LOOP ( 'NONE', ( #130 ) ) ;
#101 = DIRECTION ( 'NONE',  ( -2.237827095874790771E-30, 1.000000000000000000, -6.298923296938316841E-16 ) ) ;
#102 = DIRECTION ( 'NONE',  ( -1.841266192206259275E-30, 1.000000000000000000, -5.273595971205575375E-16 ) ) ;
#103 = FACE_OUTER_BOUND ( 'NONE', #23, .T. ) ;
#104 = FACE_OUTER_BOUND ( 'NONE', #88, .T. ) ;
#105 = AXIS2_PLACEMENT_3D ( 'NONE', #46, #29, #102 ) ;
#106 = CC_DESIGN_DATE_AND_TIME_ASSIGNMENT ( #128, #186, ( #61 ) ) ;
#107 = CARTESIAN_POINT ( 'NONE',  ( 0.0000000000000000000, 0.0000000000000000000, 0.0000000000000000000 ) ) ;
#108 = PERSON_AND_ORGANIZATION ( #8, #4 ) ;
#109 = AXIS2_PLACEMENT_3D ( 'NONE', #13, #93, #67 ) ;
#110 = EDGE_LOOP ( 'NONE', ( #172 ) ) ;
#111 = ORIENTED_EDGE ( 'NONE', *, *, #211, .T. ) ;
#112 = FACE_BOUND ( 'NONE', #110, .T. ) ;
#113 = AXIS2_PLACEMENT_3D ( 'NONE', #142, #156, #227 ) ;
#114 = EDGE_CURVE ( 'NONE', #127, #127, #20, .T. ) ;
#115 = DIRECTION ( 'NONE',  ( 1.841266192206259625E-30, -1.000000000000000000, 5.273595971205575375E-16 ) ) ;
#116 = FACE_OUTER_BOUND ( 'NONE', #173, .T. ) ;
#117 = FACE_BOUND ( 'NONE', #81, .T. ) ;
#118 = ADVANCED_FACE ( 'NONE', ( #112, #138 ), #157, .T. ) ;
#119 = AXIS2_PLACEMENT_3D ( 'NONE', #7, #14, #86 ) ;
#120 = DATE_TIME_ROLE ( 'creation_date' ) ;
#121 = UNCERTAINTY_MEASURE_WITH_UNIT (LENGTH_MEASURE( 1.000000000000000082E-05 ), #38, 'distance_accuracy_value', 'NONE');
#122 = DIRECTION ( 'NONE',  ( 3.491481338843133355E-15, 5.273595971205574389E-16, 1.000000000000000000 ) ) ;
#123 = CARTESIAN_POINT ( 'NONE',  ( 6.842277657836020854E-46, 2.523059892324147846, 0.0000000000000000000 ) ) ;
#124 = MANIFOLD_SOLID_BREP ( 'Corps-Déplacer/Copier1[2]', #41 ) ;
#125 = CIRCLE ( 'NONE', #15, 2.753999999999991566 ) ;
#126 = APPROVAL ( #77, 'UNSPECIFIED' ) ;
#127 = VERTEX_POINT ( 'NONE', #94 ) ;
#128 = DATE_AND_TIME ( #59, #197 ) ;
#129 = CC_DESIGN_PERSON_AND_ORGANIZATION_ASSIGNMENT ( #166, #223, ( #64 ) ) ;
#130 = ORIENTED_EDGE ( 'NONE', *, *, #153, .T. ) ;
#131 = EDGE_LOOP ( 'NONE', ( #3 ) ) ;
#132 = ADVANCED_FACE ( 'NONE', ( #228 ), #33, .T. ) ;
#133 = AXIS2_PLACEMENT_3D ( 'NONE', #196, #222, #240 ) ;
#134 = ORIENTED_EDGE ( 'NONE', *, *, #83, .T. ) ;
#135 = EDGE_LOOP ( 'NONE', ( #190 ) ) ;
#136 = FACE_OUTER_BOUND ( 'NONE', #100, .T. ) ;
#137 = COORDINATED_UNIVERSAL_TIME_OFFSET ( 1, 0, .AHEAD. ) ;
#138 = FACE_OUTER_BOUND ( 'NONE', #131, .T. ) ;
#139 = APPROVAL_PERSON_ORGANIZATION ( #108, #2, #73 ) ;
#140 = PLANE ( 'NONE',  #21 ) ;
#141 = CARTESIAN_POINT ( 'NONE',  ( 4.429255560284939126E-14, 6.690026957411152688E-15, 12.68589211979728937 ) ) ;
#142 = CARTESIAN_POINT ( 'NONE',  ( 4.429255560284938495E-14, 2.753999999999998227, 12.68589211979728759 ) ) ;
#143 = APPLICATION_CONTEXT ( 'configuration controlled 3d designs of mechanical parts and assemblies' ) ;
#144 = CARTESIAN_POINT ( 'NONE',  ( 2.793185071074506684E-13, -7.225416114969383207E-15, 80.00000000000000000 ) ) ;
#145 = CALENDAR_DATE ( 2021, 26, 11 ) ;
#146 = CARTESIAN_POINT ( 'NONE',  ( 4.885231259955590439E-14, -1.263712492114123682E-15, 13.99185842870425134 ) ) ;
#147 = VERTEX_POINT ( 'NONE', #55 ) ;
#148 = AXIS2_PLACEMENT_3D ( 'NONE', #216, #212, #51 ) ;
#149 = EDGE_LOOP ( 'NONE', ( #9 ) ) ;
#150 = ADVANCED_FACE ( 'NONE', ( #154, #103 ), #224, .T. ) ;
#151 = AXIS2_PLACEMENT_3D ( 'NONE', #45, #122, #115 ) ;
#152 = AXIS2_PLACEMENT_3D ( 'NONE', #48, #159, #231 ) ;
#153 = EDGE_CURVE ( 'NONE', #74, #74, #243, .T. ) ;
#154 = FACE_BOUND ( 'NONE', #82, .T. ) ;
#155 = CALENDAR_DATE ( 2021, 26, 11 ) ;
#156 = DIRECTION ( 'NONE',  ( -3.491481338843133355E-15, 9.031770143711729009E-17, -1.000000000000000000 ) ) ;
#157 = CONICAL_SURFACE ( 'NONE', #119, 2.753999999999999559, 0.5235987755982929315 ) ;
#158 = FACE_OUTER_BOUND ( 'NONE', #181, .T. ) ;
#159 = DIRECTION ( 'NONE',  ( -3.491481338843133355E-15, 9.031770143711729009E-17, -1.000000000000000000 ) ) ;
#160 = DIRECTION ( 'NONE',  ( -3.491481338843133355E-15, 9.031770143711729009E-17, -1.000000000000000000 ) ) ;
#161 = LOCAL_TIME ( 11, 3, 59.00000000000000000, #193 ) ;
#162 = PERSON_AND_ORGANIZATION_ROLE ( 'creator' ) ;
#163 = PRODUCT_RELATED_PRODUCT_CATEGORY ( 'detail', '', ( #64 ) ) ;
#164 = DATE_AND_TIME ( #236, #32 ) ;
#165 = DIRECTION ( 'NONE',  ( -3.491481338843133355E-15, 9.031770143711729009E-17, -1.000000000000000000 ) ) ;
#166 = PERSON_AND_ORGANIZATION ( #8, #4 ) ;
#167 = ADVANCED_FACE ( 'NONE', ( #177, #117 ), #87, .T. ) ;
#168 = VERTEX_POINT ( 'NONE', #35 ) ;
#169 = CC_DESIGN_APPROVAL ( #2, ( #61 ) ) ;
#170 = DESIGN_CONTEXT ( 'detailed design', #143, 'design' ) ;
#171 = PRODUCT_DEFINITION ( 'UNKNOWN', '', #78, #170 ) ;
#172 = ORIENTED_EDGE ( 'NONE', *, *, #230, .T. ) ;
#173 = EDGE_LOOP ( 'NONE', ( #134 ) ) ;
#174 = ADVANCED_FACE ( 'NONE', ( #11, #158 ), #69, .T. ) ;
#175 = AXIS2_PLACEMENT_3D ( 'NONE', #185, #217, #235 ) ;
#176 = PLANE ( 'NONE',  #75 ) ;
#177 = FACE_OUTER_BOUND ( 'NONE', #135, .T. ) ;
#178 = CARTESIAN_POINT ( 'NONE',  ( 2.779219145719134403E-13, -7.189289034394536528E-15, 79.60000000000000853 ) ) ;
#179 = CC_DESIGN_APPROVAL ( #126, ( #171 ) ) ;
#180 = DIRECTION ( 'NONE',  ( 3.491481338843133355E-15, 5.273595971205574389E-16, 1.000000000000000000 ) ) ;
#181 = EDGE_LOOP ( 'NONE', ( #207 ) ) ;
#182 = CARTESIAN_POINT ( 'NONE',  ( 2.793185071074506684E-13, 1.599999999999987876, 80.00000000000000000 ) ) ;
#183 = AXIS2_PLACEMENT_3D ( 'NONE', #144, #160, #219 ) ;
#184 =( NAMED_UNIT ( * ) PLANE_ANGLE_UNIT ( ) SI_UNIT ( $, .RADIAN. ) );
#185 = CARTESIAN_POINT ( 'NONE',  ( 2.779219145719134403E-13, -7.189289034394536528E-15, 79.60000000000000853 ) ) ;
#186 = DATE_TIME_ROLE ( 'classification_date' ) ;
#187 = CIRCLE ( 'NONE', #105, 2.523059892324147846 ) ;
#188 = SHAPE_DEFINITION_REPRESENTATION ( #85, #34 ) ;
#189 = AXIS2_PLACEMENT_3D ( 'NONE', #178, #66, #210 ) ;
#190 = ORIENTED_EDGE ( 'NONE', *, *, #114, .T. ) ;
#191 = EDGE_LOOP ( 'NONE', ( #208 ) ) ;
#192 = CC_DESIGN_APPROVAL ( #47, ( #78 ) ) ;
#193 = COORDINATED_UNIVERSAL_TIME_OFFSET ( 1, 0, .AHEAD. ) ;
#194 = PLANE ( 'NONE',  #113 ) ;
#195 = DIRECTION ( 'NONE',  ( -3.491481338843133355E-15, -5.273595971205574389E-16, -1.000000000000000000 ) ) ;
#196 = CARTESIAN_POINT ( 'NONE',  ( 0.0000000000000000000, 0.0000000000000000000, 0.0000000000000000000 ) ) ;
#197 = LOCAL_TIME ( 11, 3, 59.00000000000000000, #234 ) ;
#198 = ADVANCED_FACE ( 'NONE', ( #56, #233 ), #71, .T. ) ;
#199 = CARTESIAN_POINT ( 'NONE',  ( 4.429255560284938495E-14, 2.753999999999998227, 12.68589211979728759 ) ) ;
#200 = AXIS2_PLACEMENT_3D ( 'NONE', #146, #58, #37 ) ;
#201 = VERTEX_POINT ( 'NONE', #182 ) ;
#202 = SECURITY_CLASSIFICATION_LEVEL ( 'unclassified' ) ;
#203 = COORDINATED_UNIVERSAL_TIME_OFFSET ( 1, 0, .AHEAD. ) ;
#204 = AXIS2_PLACEMENT_3D ( 'NONE', #65, #195, #226 ) ;
#205 = APPLICATION_CONTEXT ( 'configuration controlled 3d designs of mechanical parts and assemblies' ) ;
#206 = CC_DESIGN_PERSON_AND_ORGANIZATION_ASSIGNMENT ( #39, #239, ( #61 ) ) ;
#207 = ORIENTED_EDGE ( 'NONE', *, *, #114, .F. ) ;
#208 = ORIENTED_EDGE ( 'NONE', *, *, #242, .F. ) ;
#209 = EDGE_LOOP ( 'NONE', ( #1 ) ) ;
#210 = DIRECTION ( 'NONE',  ( 0.0000000000000000000, 1.000000000000000000, 0.0000000000000000000 ) ) ;
#211 = EDGE_CURVE ( 'NONE', #168, #168, #60, .T. ) ;
#212 = DIRECTION ( 'NONE',  ( 3.491481338843133355E-15, -9.031770143711729009E-17, 1.000000000000000000 ) ) ;
#213 = CARTESIAN_POINT ( 'NONE',  ( 4.429255560284938495E-14, 6.690026957411151110E-15, 12.68589211979728759 ) ) ;
#214 = PERSON_AND_ORGANIZATION ( #8, #4 ) ;
#215 =( GEOMETRIC_REPRESENTATION_CONTEXT ( 3 ) GLOBAL_UNCERTAINTY_ASSIGNED_CONTEXT ( ( #121 ) ) GLOBAL_UNIT_ASSIGNED_CONTEXT ( ( #38, #184, #237 ) ) REPRESENTATION_CONTEXT ( 'NONE', 'WORKASPACE' ) );
#216 = CARTESIAN_POINT ( 'NONE',  ( 2.793185071074506684E-13, -7.225416114969383207E-15, 80.00000000000000000 ) ) ;
#217 = DIRECTION ( 'NONE',  ( -3.491481338843133355E-15, 9.031770143711729009E-17, -1.000000000000000000 ) ) ;
#218 = MECHANICAL_CONTEXT ( 'NONE', #205, 'mechanical' ) ;
#219 = DIRECTION ( 'NONE',  ( 0.0000000000000000000, 1.000000000000000000, 0.0000000000000000000 ) ) ;
#220 = VERTEX_POINT ( 'NONE', #123 ) ;
#221 = APPROVAL_STATUS ( 'not_yet_approved' ) ;
#222 = DIRECTION ( 'NONE',  ( -3.491481338843133355E-15, -5.273595971205574389E-16, -1.000000000000000000 ) ) ;
#223 = PERSON_AND_ORGANIZATION_ROLE ( 'design_owner' ) ;
#224 = CONICAL_SURFACE ( 'NONE', #189, 1.999999999999995337, 0.7853981633974516097 ) ;
#225 = PERSON_AND_ORGANIZATION ( #8, #4 ) ;
#226 = DIRECTION ( 'NONE',  ( -1.818234515398263386E-30, 1.000000000000000000, -5.314716531791692385E-16 ) ) ;
#227 = DIRECTION ( 'NONE',  ( 3.153425691349006731E-31, 1.000000000000000000, 9.031770143711729009E-17 ) ) ;
#228 = FACE_OUTER_BOUND ( 'NONE', #191, .T. ) ;
#229 = DATE_AND_TIME ( #155, #161 ) ;
#230 = EDGE_CURVE ( 'NONE', #147, #147, #95, .T. ) ;
#231 = DIRECTION ( 'NONE',  ( 0.0000000000000000000, 1.000000000000000000, 0.0000000000000000000 ) ) ;
#232 = AXIS2_PLACEMENT_3D ( 'NONE', #107, #165, #96 ) ;
#233 = FACE_OUTER_BOUND ( 'NONE', #149, .T. ) ;
#234 = COORDINATED_UNIVERSAL_TIME_OFFSET ( 1, 0, .AHEAD. ) ;
#235 = DIRECTION ( 'NONE',  ( 0.0000000000000000000, 1.000000000000000000, 0.0000000000000000000 ) ) ;
#236 = CALENDAR_DATE ( 2021, 26, 11 ) ;
#237 =( NAMED_UNIT ( * ) SI_UNIT ( $, .STERADIAN. ) SOLID_ANGLE_UNIT ( ) );
#238 = APPROVAL_PERSON_ORGANIZATION ( #225, #126, #49 ) ;
#239 = PERSON_AND_ORGANIZATION_ROLE ( 'classification_officer' ) ;
#240 = DIRECTION ( 'NONE',  ( -1.841266192206259275E-30, 1.000000000000000000, -5.273595971205574389E-16 ) ) ;
#241 = COORDINATED_UNIVERSAL_TIME_OFFSET ( 1, 0, .AHEAD. ) ;
#242 = EDGE_CURVE ( 'NONE', #201, #201, #10, .T. ) ;
#243 = CIRCLE ( 'NONE', #152, 2.753999999999999559 ) ;
ENDSEC;
END-ISO-10303-21;
