ISO-10303-21;
HEADER;
FILE_DESCRIPTION (( 'STEP AP203' ),
    '1' );
FILE_NAME ('321453.step',
    '2021-11-26T10:03:58',
    ( '' ),
    ( '' ),
    'SwSTEP 2.0',
    'SolidWorks 2019',
    '' );
FILE_SCHEMA (( 'CONFIG_CONTROL_DESIGN' ));
ENDSEC;

DATA;
#1 = CALENDAR_DATE ( 2021, 26, 11 ) ;
#2 = CARTESIAN_POINT ( 'NONE',  ( 4.432279271821216000E-14, 2.748999999999998334, 12.69455237383513158 ) ) ;
#3 = EDGE_CURVE ( 'NONE', #212, #212, #184, .T. ) ;
#4 = ORIENTED_EDGE ( 'NONE', *, *, #54, .F. ) ;
#5 = APPROVAL_DATE_TIME ( #211, #103 ) ;
#6 = AXIS2_PLACEMENT_3D ( 'NONE', #42, #58, #29 ) ;
#7 = DIRECTION ( 'NONE',  ( 1.839426679508449021E-30, -1.000000000000000000, 5.268327397441923501E-16 ) ) ;
#8 = CC_DESIGN_DATE_AND_TIME_ASSIGNMENT ( #192, #214, ( #201 ) ) ;
#9 = DIRECTION ( 'NONE',  ( 0.0000000000000000000, 1.000000000000000000, 0.0000000000000000000 ) ) ;
#10 = DIRECTION ( 'NONE',  ( 0.0000000000000000000, 1.000000000000000000, 0.0000000000000000000 ) ) ;
#11 =( GEOMETRIC_REPRESENTATION_CONTEXT ( 3 ) GLOBAL_UNCERTAINTY_ASSIGNED_CONTEXT ( ( #189 ) ) GLOBAL_UNIT_ASSIGNED_CONTEXT ( ( #100, #50, #101 ) ) REPRESENTATION_CONTEXT ( 'NONE', 'WORKASPACE' ) );
#12 = CARTESIAN_POINT ( 'NONE',  ( 0.0000000000000000000, 0.0000000000000000000, 0.0000000000000000000 ) ) ;
#13 = CARTESIAN_POINT ( 'NONE',  ( 4.432279271821216631E-14, 6.687905806933703388E-15, 12.69455237383513335 ) ) ;
#14 = CONICAL_SURFACE ( 'NONE', #6, 1.999999999999995337, 0.7853981633974516097 ) ;
#15 = LOCAL_TIME ( 11, 3, 58.00000000000000000, #87 ) ;
#16 = DIRECTION ( 'NONE',  ( 0.0000000000000000000, 0.0000000000000000000, 1.000000000000000000 ) ) ;
#17 = APPROVAL_ROLE ( '' ) ;
#18 = AXIS2_PLACEMENT_3D ( 'NONE', #108, #21, #23 ) ;
#19 = CC_DESIGN_APPROVAL ( #221, ( #152 ) ) ;
#20 = EDGE_LOOP ( 'NONE', ( #114 ) ) ;
#21 = DIRECTION ( 'NONE',  ( -3.491481338843133355E-15, -5.268327397441923501E-16, -1.000000000000000000 ) ) ;
#22 = CARTESIAN_POINT ( 'NONE',  ( 4.631786546541209275E-30, 6.988944116863371913E-31, 1.326596391913096913E-15 ) ) ;
#23 = DIRECTION ( 'NONE',  ( -1.839426679508448671E-30, 1.000000000000000000, -5.268327397441923501E-16 ) ) ;
#24 = DIRECTION ( 'NONE',  ( 0.0000000000000000000, 1.000000000000000000, 0.0000000000000000000 ) ) ;
#25 = AXIS2_PLACEMENT_3D ( 'NONE', #209, #26, #77 ) ;
#26 = DIRECTION ( 'NONE',  ( 3.491481338843133355E-15, -9.031770143711729009E-17, 1.000000000000000000 ) ) ;
#27 = FACE_BOUND ( 'NONE', #181, .T. ) ;
#28 = PLANE ( 'NONE',  #179 ) ;
#29 = DIRECTION ( 'NONE',  ( 0.0000000000000000000, 1.000000000000000000, 0.0000000000000000000 ) ) ;
#30 = CONICAL_SURFACE ( 'NONE', #44, 2.748999999999999666, 0.5235987755982927094 ) ;
#31 = CC_DESIGN_PERSON_AND_ORGANIZATION_ASSIGNMENT ( #113, #230, ( #35 ) ) ;
#32 = VERTEX_POINT ( 'NONE', #227 ) ;
#33 = ADVANCED_FACE ( 'NONE', ( #37, #111 ), #38, .T. ) ;
#34 = CALENDAR_DATE ( 2021, 26, 11 ) ;
#35 = PRODUCT_DEFINITION_FORMATION_WITH_SPECIFIED_SOURCE ( 'ANY', '', #187, .NOT_KNOWN. ) ;
#36 = EDGE_LOOP ( 'NONE', ( #199 ) ) ;
#37 = FACE_OUTER_BOUND ( 'NONE', #137, .T. ) ;
#38 = CONICAL_SURFACE ( 'NONE', #65, 2.518059892324147953, 0.5235987755982978165 ) ;
#39 = CARTESIAN_POINT ( 'NONE',  ( 1.396592535537258272E-15, 2.107330958976776944E-16, 0.4000000000000014100 ) ) ;
#40 = DIRECTION ( 'NONE',  ( 3.153425691349006731E-31, 1.000000000000000000, 9.031770143711729009E-17 ) ) ;
#41 = ADVANCED_FACE ( 'NONE', ( #190, #191 ), #61, .T. ) ;
#42 = CARTESIAN_POINT ( 'NONE',  ( 2.779219145719134403E-13, -7.189289034394536528E-15, 79.60000000000000853 ) ) ;
#43 = DIRECTION ( 'NONE',  ( -3.491481338843133355E-15, -5.268327397441923501E-16, -1.000000000000000000 ) ) ;
#44 = AXIS2_PLACEMENT_3D ( 'NONE', #64, #235, #10 ) ;
#45 = PERSON_AND_ORGANIZATION ( #143, #94 ) ;
#46 = APPROVAL_ROLE ( '' ) ;
#47 = APPLICATION_PROTOCOL_DEFINITION ( 'international standard', 'config_control_design', 1994, #173 ) ;
#48 = MECHANICAL_CONTEXT ( 'NONE', #173, 'mechanical' ) ;
#49 = CIRCLE ( 'NONE', #200, 2.748999999999997890 ) ;
#50 =( NAMED_UNIT ( * ) PLANE_ANGLE_UNIT ( ) SI_UNIT ( $, .RADIAN. ) );
#51 = PERSON_AND_ORGANIZATION_ROLE ( 'classification_officer' ) ;
#52 = EDGE_LOOP ( 'NONE', ( #177 ) ) ;
#53 = SHAPE_DEFINITION_REPRESENTATION ( #74, #133 ) ;
#54 = EDGE_CURVE ( 'NONE', #32, #32, #110, .T. ) ;
#55 = APPROVAL ( #128, 'UNSPECIFIED' ) ;
#56 = CIRCLE ( 'NONE', #69, 2.748999999999992117 ) ;
#57 = EDGE_LOOP ( 'NONE', ( #88 ) ) ;
#58 = DIRECTION ( 'NONE',  ( -3.491481338843133355E-15, 9.031770143711729009E-17, -1.000000000000000000 ) ) ;
#59 = DIRECTION ( 'NONE',  ( -1.821541598911173933E-30, 1.000000000000000000, -5.324383167898989056E-16 ) ) ;
#60 = CIRCLE ( 'NONE', #158, 1.599999999999994982 ) ;
#61 = CYLINDRICAL_SURFACE ( 'NONE', #135, 1.999999999999993561 ) ;
#62 = DIRECTION ( 'NONE',  ( 3.491481338843133355E-15, 5.268327397441923501E-16, 1.000000000000000000 ) ) ;
#63 = EDGE_CURVE ( 'NONE', #68, #68, #166, .T. ) ;
#64 = CARTESIAN_POINT ( 'NONE',  ( 4.432279271821216000E-14, -1.146542791177890008E-15, 12.69455237383513158 ) ) ;
#65 = AXIS2_PLACEMENT_3D ( 'NONE', #22, #92, #78 ) ;
#66 = COORDINATED_UNIVERSAL_TIME_OFFSET ( 1, 0, .AHEAD. ) ;
#67 = PERSON_AND_ORGANIZATION ( #143, #94 ) ;
#68 = VERTEX_POINT ( 'NONE', #155 ) ;
#69 = AXIS2_PLACEMENT_3D ( 'NONE', #13, #139, #142 ) ;
#70 = PERSON_AND_ORGANIZATION_ROLE ( 'design_owner' ) ;
#71 = PERSON_AND_ORGANIZATION_ROLE ( 'creator' ) ;
#72 = EDGE_LOOP ( 'NONE', ( #107 ) ) ;
#73 = DATE_TIME_ROLE ( 'classification_date' ) ;
#74 = PRODUCT_DEFINITION_SHAPE ( 'NONE', 'NONE',  #201 ) ;
#75 = EDGE_LOOP ( 'NONE', ( #217 ) ) ;
#76 = CIRCLE ( 'NONE', #145, 1.999999999999991784 ) ;
#77 = DIRECTION ( 'NONE',  ( -3.153425691349006731E-31, -1.000000000000000000, -9.031770143711729009E-17 ) ) ;
#78 = DIRECTION ( 'NONE',  ( 1.839426679508448671E-30, -1.000000000000000000, 5.268327397441923501E-16 ) ) ;
#79 = AXIS2_PLACEMENT_3D ( 'NONE', #220, #98, #40 ) ;
#80 = CC_DESIGN_APPROVAL ( #103, ( #35 ) ) ;
#81 = CYLINDRICAL_SURFACE ( 'NONE', #171, 2.748999999999994781 ) ;
#82 = CARTESIAN_POINT ( 'NONE',  ( 4.885231259955590439E-14, -1.263712492114123682E-15, 13.99185842870425134 ) ) ;
#83 = CALENDAR_DATE ( 2021, 26, 11 ) ;
#84 = APPLICATION_PROTOCOL_DEFINITION ( 'international standard', 'config_control_design', 1994, #193 ) ;
#85 = DIRECTION ( 'NONE',  ( 1.000000000000000000, 0.0000000000000000000, 0.0000000000000000000 ) ) ;
#86 = DATE_AND_TIME ( #1, #130 ) ;
#87 = COORDINATED_UNIVERSAL_TIME_OFFSET ( 1, 0, .AHEAD. ) ;
#88 = ORIENTED_EDGE ( 'NONE', *, *, #3, .F. ) ;
#89 = ORIENTED_EDGE ( 'NONE', *, *, #116, .F. ) ;
#90 = APPROVAL_ROLE ( '' ) ;
#91 = EDGE_LOOP ( 'NONE', ( #89 ) ) ;
#92 = DIRECTION ( 'NONE',  ( 3.491481338843133355E-15, 5.268327397441923501E-16, 1.000000000000000000 ) ) ;
#93 = CARTESIAN_POINT ( 'NONE',  ( 4.432279271821215368E-14, 6.687905806933702599E-15, 12.69455237383512980 ) ) ;
#94 = ORGANIZATION ( 'UNSPECIFIED', 'UNSPECIFIED', '' ) ;
#95 = DIRECTION ( 'NONE',  ( 0.0000000000000000000, 1.000000000000000000, 0.0000000000000000000 ) ) ;
#96 = FACE_OUTER_BOUND ( 'NONE', #75, .T. ) ;
#97 = CARTESIAN_POINT ( 'NONE',  ( -2.315893273270604637E-30, 2.518059892324147953, -6.632981959565484564E-16 ) ) ;
#98 = DIRECTION ( 'NONE',  ( -3.491481338843133355E-15, 9.031770143711729009E-17, -1.000000000000000000 ) ) ;
#99 = APPROVAL_PERSON_ORGANIZATION ( #243, #103, #17 ) ;
#100 =( LENGTH_UNIT ( ) NAMED_UNIT ( * ) SI_UNIT ( .MILLI., .METRE. ) );
#101 =( NAMED_UNIT ( * ) SI_UNIT ( $, .STERADIAN. ) SOLID_ANGLE_UNIT ( ) );
#102 = CARTESIAN_POINT ( 'NONE',  ( 2.793185071074506684E-13, 1.599999999999987876, 80.00000000000000000 ) ) ;
#103 = APPROVAL ( #148, 'UNSPECIFIED' ) ;
#104 = COORDINATED_UNIVERSAL_TIME_OFFSET ( 1, 0, .AHEAD. ) ;
#105 = LOCAL_TIME ( 11, 3, 58.00000000000000000, #109 ) ;
#106 = SECURITY_CLASSIFICATION_LEVEL ( 'unclassified' ) ;
#107 = ORIENTED_EDGE ( 'NONE', *, *, #116, .T. ) ;
#108 = CARTESIAN_POINT ( 'NONE',  ( 4.631786546541209275E-30, 6.988944116863371913E-31, 1.326596391913096913E-15 ) ) ;
#109 = COORDINATED_UNIVERSAL_TIME_OFFSET ( 1, 0, .AHEAD. ) ;
#110 = CIRCLE ( 'NONE', #238, 1.999999999999995337 ) ;
#111 = FACE_BOUND ( 'NONE', #57, .T. ) ;
#112 = DESIGN_CONTEXT ( 'detailed design', #193, 'design' ) ;
#113 = PERSON_AND_ORGANIZATION ( #143, #94 ) ;
#114 = ORIENTED_EDGE ( 'NONE', *, *, #156, .F. ) ;
#115 = CARTESIAN_POINT ( 'NONE',  ( 2.779219145719134403E-13, -7.189289034394536528E-15, 79.60000000000000853 ) ) ;
#116 = EDGE_CURVE ( 'NONE', #170, #170, #56, .T. ) ;
#117 = DIRECTION ( 'NONE',  ( -3.491481338843133355E-15, -5.268327397441923501E-16, -1.000000000000000000 ) ) ;
#118 = CC_DESIGN_APPROVAL ( #55, ( #201 ) ) ;
#119 = CARTESIAN_POINT ( 'NONE',  ( 4.432279271821216000E-14, -1.146542791177890008E-15, 12.69455237383513158 ) ) ;
#120 = DIRECTION ( 'NONE',  ( -3.491481338843133355E-15, 9.031770143711729009E-17, -1.000000000000000000 ) ) ;
#121 = PLANE ( 'NONE',  #25 ) ;
#122 = CLOSED_SHELL ( 'NONE', ( #154, #178, #33, #147 ) ) ;
#123 = AXIS2_PLACEMENT_3D ( 'NONE', #150, #16, #85 ) ;
#124 = VERTEX_POINT ( 'NONE', #102 ) ;
#125 = CALENDAR_DATE ( 2021, 26, 11 ) ;
#126 = CARTESIAN_POINT ( 'NONE',  ( 4.885231259955590439E-14, 1.999999999999990452, 13.99185842870425134 ) ) ;
#127 = CC_DESIGN_SECURITY_CLASSIFICATION ( #152, ( #35 ) ) ;
#128 = APPROVAL_STATUS ( 'not_yet_approved' ) ;
#129 = APPROVAL_STATUS ( 'not_yet_approved' ) ;
#130 = LOCAL_TIME ( 11, 3, 58.00000000000000000, #196 ) ;
#131 = EDGE_LOOP ( 'NONE', ( #202 ) ) ;
#132 = ORIENTED_EDGE ( 'NONE', *, *, #210, .T. ) ;
#133 = ADVANCED_BREP_SHAPE_REPRESENTATION ( '321453', ( #229, #146, #123 ), #11 ) ;
#134 = PRODUCT_RELATED_PRODUCT_CATEGORY ( 'detail', '', ( #187 ) ) ;
#135 = AXIS2_PLACEMENT_3D ( 'NONE', #242, #225, #169 ) ;
#136 = ADVANCED_FACE ( 'NONE', ( #241, #222 ), #30, .T. ) ;
#137 = EDGE_LOOP ( 'NONE', ( #132 ) ) ;
#138 = CC_DESIGN_PERSON_AND_ORGANIZATION_ASSIGNMENT ( #194, #70, ( #187 ) ) ;
#139 = DIRECTION ( 'NONE',  ( -3.491481338843133355E-15, -5.268327397441923501E-16, -1.000000000000000000 ) ) ;
#140 = DIRECTION ( 'NONE',  ( -1.839426679508449021E-30, 1.000000000000000000, -5.268327397441923501E-16 ) ) ;
#141 = FACE_OUTER_BOUND ( 'NONE', #198, .T. ) ;
#142 = DIRECTION ( 'NONE',  ( -2.241897352506064807E-30, 1.000000000000000000, -6.310380050843259363E-16 ) ) ;
#143 = PERSON ( 'UNSPECIFIED', 'UNSPECIFIED', 'UNSPECIFIED', ('UNSPECIFIED'), ('UNSPECIFIED'), ('UNSPECIFIED') ) ;
#144 = FACE_OUTER_BOUND ( 'NONE', #72, .T. ) ;
#145 = AXIS2_PLACEMENT_3D ( 'NONE', #82, #185, #9 ) ;
#146 = MANIFOLD_SOLID_BREP ( 'Corps-Déplacer/Copier1[2]', #122 ) ;
#147 = ADVANCED_FACE ( 'NONE', ( #186 ), #28, .T. ) ;
#148 = APPROVAL_STATUS ( 'not_yet_approved' ) ;
#149 = CC_DESIGN_DATE_AND_TIME_ASSIGNMENT ( #180, #73, ( #152 ) ) ;
#150 = CARTESIAN_POINT ( 'NONE',  ( 0.0000000000000000000, 0.0000000000000000000, 0.0000000000000000000 ) ) ;
#151 = CLOSED_SHELL ( 'NONE', ( #183, #207, #41, #136, #224 ) ) ;
#152 = SECURITY_CLASSIFICATION ( '', '', #106 ) ;
#153 = CARTESIAN_POINT ( 'NONE',  ( 1.396592535537253342E-15, 2.748999999999997890, 0.3999999999999999667 ) ) ;
#154 = ADVANCED_FACE ( 'NONE', ( #205 ), #188, .T. ) ;
#155 = CARTESIAN_POINT ( 'NONE',  ( 4.432279271821216000E-14, 2.748999999999998334, 12.69455237383513158 ) ) ;
#156 = EDGE_CURVE ( 'NONE', #213, #213, #76, .T. ) ;
#157 = EDGE_LOOP ( 'NONE', ( #175 ) ) ;
#158 = AXIS2_PLACEMENT_3D ( 'NONE', #206, #120, #208 ) ;
#159 = PERSON_AND_ORGANIZATION ( #143, #94 ) ;
#160 = PERSON_AND_ORGANIZATION ( #143, #94 ) ;
#161 = AXIS2_PLACEMENT_3D ( 'NONE', #119, #240, #95 ) ;
#162 = APPROVAL_PERSON_ORGANIZATION ( #160, #221, #90 ) ;
#163 = CC_DESIGN_PERSON_AND_ORGANIZATION_ASSIGNMENT ( #67, #226, ( #201 ) ) ;
#164 = DIRECTION ( 'NONE',  ( -3.491481338843133355E-15, -5.268327397441923501E-16, -1.000000000000000000 ) ) ;
#165 = FACE_OUTER_BOUND ( 'NONE', #232, .T. ) ;
#166 = CIRCLE ( 'NONE', #161, 2.748999999999999666 ) ;
#167 = LOCAL_TIME ( 11, 3, 58.00000000000000000, #66 ) ;
#168 = DIRECTION ( 'NONE',  ( -1.839426679508448671E-30, 1.000000000000000000, -5.268327397441923501E-16 ) ) ;
#169 = DIRECTION ( 'NONE',  ( 3.153425691349006731E-31, 1.000000000000000000, 9.031770143711729009E-17 ) ) ;
#170 = VERTEX_POINT ( 'NONE', #2 ) ;
#171 = AXIS2_PLACEMENT_3D ( 'NONE', #12, #43, #168 ) ;
#172 = APPROVAL_DATE_TIME ( #86, #55 ) ;
#173 = APPLICATION_CONTEXT ( 'configuration controlled 3d designs of mechanical parts and assemblies' ) ;
#174 = VERTEX_POINT ( 'NONE', #153 ) ;
#175 = ORIENTED_EDGE ( 'NONE', *, *, #54, .T. ) ;
#176 = DATE_AND_TIME ( #218, #239 ) ;
#177 = ORIENTED_EDGE ( 'NONE', *, *, #210, .F. ) ;
#178 = ADVANCED_FACE ( 'NONE', ( #144, #223 ), #81, .T. ) ;
#179 = AXIS2_PLACEMENT_3D ( 'NONE', #97, #117, #140 ) ;
#180 = DATE_AND_TIME ( #34, #105 ) ;
#181 = EDGE_LOOP ( 'NONE', ( #231 ) ) ;
#182 = ORIENTED_EDGE ( 'NONE', *, *, #228, .F. ) ;
#183 = ADVANCED_FACE ( 'NONE', ( #165 ), #121, .T. ) ;
#184 = CIRCLE ( 'NONE', #18, 2.518059892324147953 ) ;
#185 = DIRECTION ( 'NONE',  ( -3.491481338843133355E-15, 9.031770143711729009E-17, -1.000000000000000000 ) ) ;
#186 = FACE_OUTER_BOUND ( 'NONE', #233, .T. ) ;
#187 = PRODUCT ( '321453', '321453', '', ( #48 ) ) ;
#188 = PLANE ( 'NONE',  #204 ) ;
#189 = UNCERTAINTY_MEASURE_WITH_UNIT (LENGTH_MEASURE( 1.000000000000000082E-05 ), #100, 'distance_accuracy_value', 'NONE');
#190 = FACE_OUTER_BOUND ( 'NONE', #157, .T. ) ;
#191 = FACE_OUTER_BOUND ( 'NONE', #20, .T. ) ;
#192 = DATE_AND_TIME ( #83, #15 ) ;
#193 = APPLICATION_CONTEXT ( 'configuration controlled 3d designs of mechanical parts and assemblies' ) ;
#194 = PERSON_AND_ORGANIZATION ( #143, #94 ) ;
#195 = CARTESIAN_POINT ( 'NONE',  ( 0.0000000000000000000, 2.518059892324147953, 0.0000000000000000000 ) ) ;
#196 = COORDINATED_UNIVERSAL_TIME_OFFSET ( 1, 0, .AHEAD. ) ;
#197 = APPROVAL_PERSON_ORGANIZATION ( #45, #55, #46 ) ;
#198 = EDGE_LOOP ( 'NONE', ( #4 ) ) ;
#199 = ORIENTED_EDGE ( 'NONE', *, *, #156, .T. ) ;
#200 = AXIS2_PLACEMENT_3D ( 'NONE', #39, #164, #59 ) ;
#201 = PRODUCT_DEFINITION ( 'UNKNOWN', '', #35, #112 ) ;
#202 = ORIENTED_EDGE ( 'NONE', *, *, #63, .F. ) ;
#203 = DIRECTION ( 'NONE',  ( -3.491481338843133355E-15, 9.031770143711729009E-17, -1.000000000000000000 ) ) ;
#204 = AXIS2_PLACEMENT_3D ( 'NONE', #93, #62, #7 ) ;
#205 = FACE_OUTER_BOUND ( 'NONE', #91, .T. ) ;
#206 = CARTESIAN_POINT ( 'NONE',  ( 2.793185071074506684E-13, -7.225416114969383207E-15, 80.00000000000000000 ) ) ;
#207 = ADVANCED_FACE ( 'NONE', ( #27, #141 ), #14, .T. ) ;
#208 = DIRECTION ( 'NONE',  ( 0.0000000000000000000, 1.000000000000000000, 0.0000000000000000000 ) ) ;
#209 = CARTESIAN_POINT ( 'NONE',  ( 2.793185071074506684E-13, -7.225416114969383207E-15, 80.00000000000000000 ) ) ;
#210 = EDGE_CURVE ( 'NONE', #174, #174, #49, .T. ) ;
#211 = DATE_AND_TIME ( #125, #167 ) ;
#212 = VERTEX_POINT ( 'NONE', #195 ) ;
#213 = VERTEX_POINT ( 'NONE', #126 ) ;
#214 = DATE_TIME_ROLE ( 'creation_date' ) ;
#215 = CC_DESIGN_PERSON_AND_ORGANIZATION_ASSIGNMENT ( #159, #71, ( #35 ) ) ;
#216 = APPROVAL_DATE_TIME ( #176, #221 ) ;
#217 = ORIENTED_EDGE ( 'NONE', *, *, #63, .T. ) ;
#218 = CALENDAR_DATE ( 2021, 26, 11 ) ;
#219 = PERSON_AND_ORGANIZATION ( #143, #94 ) ;
#220 = CARTESIAN_POINT ( 'NONE',  ( 4.432279271821215368E-14, 2.748999999999998334, 12.69455237383512980 ) ) ;
#221 = APPROVAL ( #129, 'UNSPECIFIED' ) ;
#222 = FACE_OUTER_BOUND ( 'NONE', #131, .T. ) ;
#223 = FACE_OUTER_BOUND ( 'NONE', #52, .T. ) ;
#224 = ADVANCED_FACE ( 'NONE', ( #96 ), #236, .T. ) ;
#225 = DIRECTION ( 'NONE',  ( -3.491481338843133355E-15, 9.031770143711729009E-17, -1.000000000000000000 ) ) ;
#226 = PERSON_AND_ORGANIZATION_ROLE ( 'creator' ) ;
#227 = CARTESIAN_POINT ( 'NONE',  ( 2.779219145719134403E-13, 1.999999999999988010, 79.60000000000000853 ) ) ;
#228 = EDGE_CURVE ( 'NONE', #124, #124, #60, .T. ) ;
#229 = MANIFOLD_SOLID_BREP ( 'Corps-Déplacer/Copier1[1]', #151 ) ;
#230 = PERSON_AND_ORGANIZATION_ROLE ( 'design_supplier' ) ;
#231 = ORIENTED_EDGE ( 'NONE', *, *, #228, .T. ) ;
#232 = EDGE_LOOP ( 'NONE', ( #182 ) ) ;
#233 = EDGE_LOOP ( 'NONE', ( #234 ) ) ;
#234 = ORIENTED_EDGE ( 'NONE', *, *, #3, .T. ) ;
#235 = DIRECTION ( 'NONE',  ( -3.491481338843133355E-15, 9.031770143711729009E-17, -1.000000000000000000 ) ) ;
#236 = PLANE ( 'NONE',  #79 ) ;
#237 = CC_DESIGN_PERSON_AND_ORGANIZATION_ASSIGNMENT ( #219, #51, ( #152 ) ) ;
#238 = AXIS2_PLACEMENT_3D ( 'NONE', #115, #203, #24 ) ;
#239 = LOCAL_TIME ( 11, 3, 58.00000000000000000, #104 ) ;
#240 = DIRECTION ( 'NONE',  ( -3.491481338843133355E-15, 9.031770143711729009E-17, -1.000000000000000000 ) ) ;
#241 = FACE_BOUND ( 'NONE', #36, .T. ) ;
#242 = CARTESIAN_POINT ( 'NONE',  ( 0.0000000000000000000, 0.0000000000000000000, 0.0000000000000000000 ) ) ;
#243 = PERSON_AND_ORGANIZATION ( #143, #94 ) ;
ENDSEC;
END-ISO-10303-21;
