ISO-10303-21;
HEADER;
FILE_DESCRIPTION (( 'STEP AP203' ),
    '1' );
FILE_NAME ('321452.step',
    '2021-11-26T10:03:58',
    ( '' ),
    ( '' ),
    'SwSTEP 2.0',
    'SolidWorks 2019',
    '' );
FILE_SCHEMA (( 'CONFIG_CONTROL_DESIGN' ));
ENDSEC;

DATA;
#1 = VERTEX_POINT ( 'NONE', #83 ) ;
#2 = ADVANCED_FACE ( 'NONE', ( #12, #49 ), #42, .T. ) ;
#3 = DIRECTION ( 'NONE',  ( -3.491481338843133355E-15, -5.263066007244902377E-16, -1.000000000000000000 ) ) ;
#4 = PERSON_AND_ORGANIZATION ( #136, #193 ) ;
#5 = ORIENTED_EDGE ( 'NONE', *, *, #167, .T. ) ;
#6 = DATE_TIME_ROLE ( 'creation_date' ) ;
#7 = EDGE_LOOP ( 'NONE', ( #5 ) ) ;
#8 = CALENDAR_DATE ( 2021, 26, 11 ) ;
#9 = ADVANCED_FACE ( 'NONE', ( #165 ), #128, .T. ) ;
#10 = AXIS2_PLACEMENT_3D ( 'NONE', #240, #76, #225 ) ;
#11 = LOCAL_TIME ( 11, 3, 58.00000000000000000, #103 ) ;
#12 = FACE_OUTER_BOUND ( 'NONE', #162, .T. ) ;
#13 = ADVANCED_FACE ( 'NONE', ( #238 ), #18, .T. ) ;
#14 = EDGE_LOOP ( 'NONE', ( #181 ) ) ;
#15 = DIRECTION ( 'NONE',  ( -1.837589674939521578E-30, 1.000000000000000000, -5.263066007244902377E-16 ) ) ;
#16 = APPROVAL_PERSON_ORGANIZATION ( #216, #82, #159 ) ;
#17 = CYLINDRICAL_SURFACE ( 'NONE', #217, 1.999999999999993561 ) ;
#18 = PLANE ( 'NONE',  #60 ) ;
#19 = DIRECTION ( 'NONE',  ( -3.491481338843133355E-15, -5.263066007244902377E-16, -1.000000000000000000 ) ) ;
#20 = UNCERTAINTY_MEASURE_WITH_UNIT (LENGTH_MEASURE( 1.000000000000000082E-05 ), #157, 'distance_accuracy_value', 'NONE');
#21 = FACE_OUTER_BOUND ( 'NONE', #201, .T. ) ;
#22 = AXIS2_PLACEMENT_3D ( 'NONE', #37, #235, #166 ) ;
#23 = CC_DESIGN_APPROVAL ( #82, ( #243 ) ) ;
#24 = CARTESIAN_POINT ( 'NONE',  ( 4.435302983357494135E-14, 2.743999999999998440, 12.70321262787297734 ) ) ;
#25 = DIRECTION ( 'NONE',  ( 1.000000000000000000, 0.0000000000000000000, 0.0000000000000000000 ) ) ;
#26 = PERSON_AND_ORGANIZATION ( #136, #193 ) ;
#27 = LOCAL_TIME ( 11, 3, 58.00000000000000000, #125 ) ;
#28 = CALENDAR_DATE ( 2021, 26, 11 ) ;
#29 = PERSON_AND_ORGANIZATION_ROLE ( 'classification_officer' ) ;
#30 = ADVANCED_FACE ( 'NONE', ( #87, #106 ), #80, .T. ) ;
#31 = PERSON_AND_ORGANIZATION_ROLE ( 'creator' ) ;
#32 = ORIENTED_EDGE ( 'NONE', *, *, #191, .T. ) ;
#33 = DIRECTION ( 'NONE',  ( 0.0000000000000000000, 1.000000000000000000, 0.0000000000000000000 ) ) ;
#34 = ADVANCED_FACE ( 'NONE', ( #107, #150 ), #17, .T. ) ;
#35 = CIRCLE ( 'NONE', #170, 2.513059892324148503 ) ;
#36 = DIRECTION ( 'NONE',  ( -3.491481338843133355E-15, 9.031770143711729009E-17, -1.000000000000000000 ) ) ;
#37 = CARTESIAN_POINT ( 'NONE',  ( 4.617972910639480924E-30, 6.961141673011939614E-31, 1.322640009346176038E-15 ) ) ;
#38 = DIRECTION ( 'NONE',  ( -3.491481338843133355E-15, -5.263066007244902377E-16, -1.000000000000000000 ) ) ;
#39 = EDGE_CURVE ( 'NONE', #59, #59, #184, .T. ) ;
#40 = DIRECTION ( 'NONE',  ( -3.491481338843133355E-15, 9.031770143711729009E-17, -1.000000000000000000 ) ) ;
#41 =( NAMED_UNIT ( * ) SI_UNIT ( $, .STERADIAN. ) SOLID_ANGLE_UNIT ( ) );
#42 = CONICAL_SURFACE ( 'NONE', #22, 2.513059892324148503, 0.5235987755982978165 ) ;
#43 = EDGE_CURVE ( 'NONE', #174, #174, #115, .T. ) ;
#44 = SHAPE_DEFINITION_REPRESENTATION ( #88, #77 ) ;
#45 = EDGE_LOOP ( 'NONE', ( #220 ) ) ;
#46 = SECURITY_CLASSIFICATION_LEVEL ( 'unclassified' ) ;
#47 = CONICAL_SURFACE ( 'NONE', #86, 2.743999999999999773, 0.5235987755982930425 ) ;
#48 = EDGE_LOOP ( 'NONE', ( #121 ) ) ;
#49 = FACE_BOUND ( 'NONE', #48, .T. ) ;
#50 = CARTESIAN_POINT ( 'NONE',  ( 2.793185071074506684E-13, -7.225416114969383207E-15, 80.00000000000000000 ) ) ;
#51 = CARTESIAN_POINT ( 'NONE',  ( 0.0000000000000000000, 0.0000000000000000000, 0.0000000000000000000 ) ) ;
#52 = PRODUCT_DEFINITION ( 'UNKNOWN', '', #243, #108 ) ;
#53 = FACE_OUTER_BOUND ( 'NONE', #104, .T. ) ;
#54 = AXIS2_PLACEMENT_3D ( 'NONE', #207, #40, #111 ) ;
#55 = APPROVAL_ROLE ( '' ) ;
#56 = ADVANCED_FACE ( 'NONE', ( #239, #168 ), #47, .T. ) ;
#57 = CARTESIAN_POINT ( 'NONE',  ( 4.435302983357493504E-14, 2.743999999999998440, 12.70321262787297556 ) ) ;
#58 = CARTESIAN_POINT ( 'NONE',  ( 4.435302983357494135E-14, 6.685784656456245411E-15, 12.70321262787297734 ) ) ;
#59 = VERTEX_POINT ( 'NONE', #57 ) ;
#60 = AXIS2_PLACEMENT_3D ( 'NONE', #71, #152, #154 ) ;
#61 = CC_DESIGN_DATE_AND_TIME_ASSIGNMENT ( #182, #6, ( #52 ) ) ;
#62 = CALENDAR_DATE ( 2021, 26, 11 ) ;
#63 = AXIS2_PLACEMENT_3D ( 'NONE', #74, #187, #15 ) ;
#64 = MANIFOLD_SOLID_BREP ( 'Corps-Déplacer/Copier1[2]', #156 ) ;
#65 = CALENDAR_DATE ( 2021, 26, 11 ) ;
#66 = PERSON_AND_ORGANIZATION ( #136, #193 ) ;
#67 = ORIENTED_EDGE ( 'NONE', *, *, #43, .T. ) ;
#68 = EDGE_LOOP ( 'NONE', ( #222 ) ) ;
#69 = ADVANCED_FACE ( 'NONE', ( #205 ), #109, .T. ) ;
#70 = DIRECTION ( 'NONE',  ( 3.491481338843133355E-15, 5.263066007244902377E-16, 1.000000000000000000 ) ) ;
#71 = CARTESIAN_POINT ( 'NONE',  ( 2.793185071074506684E-13, -7.225416114969383207E-15, 80.00000000000000000 ) ) ;
#72 =( GEOMETRIC_REPRESENTATION_CONTEXT ( 3 ) GLOBAL_UNCERTAINTY_ASSIGNED_CONTEXT ( ( #20 ) ) GLOBAL_UNIT_ASSIGNED_CONTEXT ( ( #157, #140, #41 ) ) REPRESENTATION_CONTEXT ( 'NONE', 'WORKASPACE' ) );
#73 = CYLINDRICAL_SURFACE ( 'NONE', #133, 2.743999999999995332 ) ;
#74 = CARTESIAN_POINT ( 'NONE',  ( -2.308986455319740462E-30, 2.513059892324148503, -6.613200046730880190E-16 ) ) ;
#75 = APPLICATION_CONTEXT ( 'configuration controlled 3d designs of mechanical parts and assemblies' ) ;
#76 = DIRECTION ( 'NONE',  ( -3.491481338843133355E-15, -5.263066007244902377E-16, -1.000000000000000000 ) ) ;
#77 = ADVANCED_BREP_SHAPE_REPRESENTATION ( '321452', ( #151, #64, #226 ), #72 ) ;
#78 = ADVANCED_FACE ( 'NONE', ( #89, #53 ), #73, .T. ) ;
#79 = PLANE ( 'NONE',  #230 ) ;
#80 = CONICAL_SURFACE ( 'NONE', #208, 1.999999999999995337, 0.7853981633974516097 ) ;
#81 = CARTESIAN_POINT ( 'NONE',  ( 4.617972910639480924E-30, 6.961141673011939614E-31, 1.322640009346176038E-15 ) ) ;
#82 = APPROVAL ( #213, 'UNSPECIFIED' ) ;
#83 = CARTESIAN_POINT ( 'NONE',  ( 4.885231259955590439E-14, 1.999999999999990452, 13.99185842870425134 ) ) ;
#84 = APPROVAL_DATE_TIME ( #233, #82 ) ;
#85 = COORDINATED_UNIVERSAL_TIME_OFFSET ( 1, 0, .AHEAD. ) ;
#86 = AXIS2_PLACEMENT_3D ( 'NONE', #202, #36, #130 ) ;
#87 = FACE_BOUND ( 'NONE', #146, .T. ) ;
#88 = PRODUCT_DEFINITION_SHAPE ( 'NONE', 'NONE',  #52 ) ;
#89 = FACE_OUTER_BOUND ( 'NONE', #234, .T. ) ;
#90 = CIRCLE ( 'NONE', #203, 1.999999999999995337 ) ;
#91 = CC_DESIGN_APPROVAL ( #147, ( #160 ) ) ;
#92 = DIRECTION ( 'NONE',  ( 0.0000000000000000000, 1.000000000000000000, 0.0000000000000000000 ) ) ;
#93 = CARTESIAN_POINT ( 'NONE',  ( 4.435302983357494135E-14, 6.685784656456245411E-15, 12.70321262787297734 ) ) ;
#94 = PRODUCT ( '321452', '321452', '', ( #210 ) ) ;
#95 = DIRECTION ( 'NONE',  ( 3.153425691349006731E-31, 1.000000000000000000, 9.031770143711729009E-17 ) ) ;
#96 = CARTESIAN_POINT ( 'NONE',  ( 2.779219145719134403E-13, 1.999999999999988010, 79.60000000000000853 ) ) ;
#97 = EDGE_CURVE ( 'NONE', #1, #1, #164, .T. ) ;
#98 = AXIS2_PLACEMENT_3D ( 'NONE', #131, #204, #92 ) ;
#99 = PERSON_AND_ORGANIZATION_ROLE ( 'design_owner' ) ;
#100 = CC_DESIGN_SECURITY_CLASSIFICATION ( #160, ( #243 ) ) ;
#101 = PERSON_AND_ORGANIZATION ( #136, #193 ) ;
#102 = PERSON_AND_ORGANIZATION_ROLE ( 'design_supplier' ) ;
#103 = COORDINATED_UNIVERSAL_TIME_OFFSET ( 1, 0, .AHEAD. ) ;
#104 = EDGE_LOOP ( 'NONE', ( #119 ) ) ;
#105 = CC_DESIGN_PERSON_AND_ORGANIZATION_ASSIGNMENT ( #199, #102, ( #243 ) ) ;
#106 = FACE_OUTER_BOUND ( 'NONE', #68, .T. ) ;
#107 = FACE_OUTER_BOUND ( 'NONE', #126, .T. ) ;
#108 = DESIGN_CONTEXT ( 'detailed design', #127, 'design' ) ;
#109 = PLANE ( 'NONE',  #63 ) ;
#110 = ORIENTED_EDGE ( 'NONE', *, *, #144, .F. ) ;
#111 = DIRECTION ( 'NONE',  ( 0.0000000000000000000, 1.000000000000000000, 0.0000000000000000000 ) ) ;
#112 = CALENDAR_DATE ( 2021, 26, 11 ) ;
#113 = CC_DESIGN_PERSON_AND_ORGANIZATION_ASSIGNMENT ( #66, #29, ( #160 ) ) ;
#114 = CARTESIAN_POINT ( 'NONE',  ( 0.0000000000000000000, 2.513059892324148503, 0.0000000000000000000 ) ) ;
#115 = CIRCLE ( 'NONE', #237, 1.599999999999994982 ) ;
#116 = PERSON_AND_ORGANIZATION_ROLE ( 'creator' ) ;
#117 = APPROVAL_PERSON_ORGANIZATION ( #101, #147, #214 ) ;
#118 = APPROVAL_DATE_TIME ( #120, #124 ) ;
#119 = ORIENTED_EDGE ( 'NONE', *, *, #142, .F. ) ;
#120 = DATE_AND_TIME ( #112, #138 ) ;
#121 = ORIENTED_EDGE ( 'NONE', *, *, #167, .F. ) ;
#122 = CLOSED_SHELL ( 'NONE', ( #13, #30, #34, #56, #227 ) ) ;
#123 = APPROVAL_PERSON_ORGANIZATION ( #4, #124, #55 ) ;
#124 = APPROVAL ( #158, 'UNSPECIFIED' ) ;
#125 = COORDINATED_UNIVERSAL_TIME_OFFSET ( 1, 0, .AHEAD. ) ;
#126 = EDGE_LOOP ( 'NONE', ( #32 ) ) ;
#127 = APPLICATION_CONTEXT ( 'configuration controlled 3d designs of mechanical parts and assemblies' ) ;
#128 = PLANE ( 'NONE',  #179 ) ;
#129 = DIRECTION ( 'NONE',  ( -3.491481338843133355E-15, 9.031770143711729009E-17, -1.000000000000000000 ) ) ;
#130 = DIRECTION ( 'NONE',  ( 0.0000000000000000000, 1.000000000000000000, 0.0000000000000000000 ) ) ;
#131 = CARTESIAN_POINT ( 'NONE',  ( 4.435302983357493504E-14, -1.147324965416449501E-15, 12.70321262787297556 ) ) ;
#132 = DIRECTION ( 'NONE',  ( -1.837589674939521578E-30, 1.000000000000000000, -5.263066007244902377E-16 ) ) ;
#133 = AXIS2_PLACEMENT_3D ( 'NONE', #51, #38, #132 ) ;
#134 = COORDINATED_UNIVERSAL_TIME_OFFSET ( 1, 0, .AHEAD. ) ;
#135 = CARTESIAN_POINT ( 'NONE',  ( 0.0000000000000000000, 0.0000000000000000000, 0.0000000000000000000 ) ) ;
#136 = PERSON ( 'UNSPECIFIED', 'UNSPECIFIED', 'UNSPECIFIED', ('UNSPECIFIED'), ('UNSPECIFIED'), ('UNSPECIFIED') ) ;
#137 = VERTEX_POINT ( 'NONE', #211 ) ;
#138 = LOCAL_TIME ( 11, 3, 58.00000000000000000, #134 ) ;
#139 = VERTEX_POINT ( 'NONE', #114 ) ;
#140 =( NAMED_UNIT ( * ) PLANE_ANGLE_UNIT ( ) SI_UNIT ( $, .RADIAN. ) );
#141 = APPROVAL_DATE_TIME ( #180, #147 ) ;
#142 = EDGE_CURVE ( 'NONE', #173, #173, #200, .T. ) ;
#143 = DATE_AND_TIME ( #65, #221 ) ;
#144 = EDGE_CURVE ( 'NONE', #137, #137, #155, .T. ) ;
#145 = CC_DESIGN_APPROVAL ( #124, ( #52 ) ) ;
#146 = EDGE_LOOP ( 'NONE', ( #67 ) ) ;
#147 = APPROVAL ( #178, 'UNSPECIFIED' ) ;
#148 = DIRECTION ( 'NONE',  ( -3.491481338843133355E-15, 9.031770143711729009E-17, -1.000000000000000000 ) ) ;
#149 = DIRECTION ( 'NONE',  ( 0.0000000000000000000, 1.000000000000000000, 0.0000000000000000000 ) ) ;
#150 = FACE_OUTER_BOUND ( 'NONE', #198, .T. ) ;
#151 = MANIFOLD_SOLID_BREP ( 'Corps-Déplacer/Copier1[1]', #122 ) ;
#152 = DIRECTION ( 'NONE',  ( 3.491481338843133355E-15, -9.031770143711729009E-17, 1.000000000000000000 ) ) ;
#153 = CC_DESIGN_PERSON_AND_ORGANIZATION_ASSIGNMENT ( #161, #116, ( #52 ) ) ;
#154 = DIRECTION ( 'NONE',  ( -3.153425691349006731E-31, -1.000000000000000000, -9.031770143711729009E-17 ) ) ;
#155 = CIRCLE ( 'NONE', #242, 2.743999999999992223 ) ;
#156 = CLOSED_SHELL ( 'NONE', ( #9, #78, #2, #69 ) ) ;
#157 =( LENGTH_UNIT ( ) NAMED_UNIT ( * ) SI_UNIT ( .MILLI., .METRE. ) );
#158 = APPROVAL_STATUS ( 'not_yet_approved' ) ;
#159 = APPROVAL_ROLE ( '' ) ;
#160 = SECURITY_CLASSIFICATION ( '', '', #46 ) ;
#161 = PERSON_AND_ORGANIZATION ( #136, #193 ) ;
#162 = EDGE_LOOP ( 'NONE', ( #215 ) ) ;
#163 = ORIENTED_EDGE ( 'NONE', *, *, #39, .T. ) ;
#164 = CIRCLE ( 'NONE', #54, 1.999999999999991784 ) ;
#165 = FACE_OUTER_BOUND ( 'NONE', #189, .T. ) ;
#166 = DIRECTION ( 'NONE',  ( 1.837589674939521578E-30, -1.000000000000000000, 5.263066007244902377E-16 ) ) ;
#167 = EDGE_CURVE ( 'NONE', #139, #139, #35, .T. ) ;
#168 = FACE_OUTER_BOUND ( 'NONE', #177, .T. ) ;
#169 = DIRECTION ( 'NONE',  ( 0.0000000000000000000, 1.000000000000000000, 0.0000000000000000000 ) ) ;
#170 = AXIS2_PLACEMENT_3D ( 'NONE', #81, #19, #192 ) ;
#171 = LOCAL_TIME ( 11, 3, 58.00000000000000000, #85 ) ;
#172 = CARTESIAN_POINT ( 'NONE',  ( 2.793185071074506684E-13, 1.599999999999987876, 80.00000000000000000 ) ) ;
#173 = VERTEX_POINT ( 'NONE', #209 ) ;
#174 = VERTEX_POINT ( 'NONE', #172 ) ;
#175 = APPLICATION_PROTOCOL_DEFINITION ( 'international standard', 'config_control_design', 1994, #127 ) ;
#176 = PRODUCT_RELATED_PRODUCT_CATEGORY ( 'detail', '', ( #94 ) ) ;
#177 = EDGE_LOOP ( 'NONE', ( #206 ) ) ;
#178 = APPROVAL_STATUS ( 'not_yet_approved' ) ;
#179 = AXIS2_PLACEMENT_3D ( 'NONE', #93, #70, #236 ) ;
#180 = DATE_AND_TIME ( #62, #11 ) ;
#181 = ORIENTED_EDGE ( 'NONE', *, *, #97, .T. ) ;
#182 = DATE_AND_TIME ( #8, #171 ) ;
#183 = ORIENTED_EDGE ( 'NONE', *, *, #97, .F. ) ;
#184 = CIRCLE ( 'NONE', #98, 2.743999999999999773 ) ;
#185 = DIRECTION ( 'NONE',  ( -3.491481338843133355E-15, 9.031770143711729009E-17, -1.000000000000000000 ) ) ;
#186 = CARTESIAN_POINT ( 'NONE',  ( 0.0000000000000000000, 0.0000000000000000000, 0.0000000000000000000 ) ) ;
#187 = DIRECTION ( 'NONE',  ( -3.491481338843133355E-15, -5.263066007244902377E-16, -1.000000000000000000 ) ) ;
#188 = ORIENTED_EDGE ( 'NONE', *, *, #144, .T. ) ;
#189 = EDGE_LOOP ( 'NONE', ( #110 ) ) ;
#190 = DIRECTION ( 'NONE',  ( -3.491481338843133355E-15, 9.031770143711729009E-17, -1.000000000000000000 ) ) ;
#191 = EDGE_CURVE ( 'NONE', #229, #229, #90, .T. ) ;
#192 = DIRECTION ( 'NONE',  ( -1.837589674939521578E-30, 1.000000000000000000, -5.263066007244902377E-16 ) ) ;
#193 = ORGANIZATION ( 'UNSPECIFIED', 'UNSPECIFIED', '' ) ;
#194 = DIRECTION ( 'NONE',  ( -3.491481338843133355E-15, 9.031770143711729009E-17, -1.000000000000000000 ) ) ;
#195 = DIRECTION ( 'NONE',  ( 0.0000000000000000000, 0.0000000000000000000, 1.000000000000000000 ) ) ;
#196 = CC_DESIGN_PERSON_AND_ORGANIZATION_ASSIGNMENT ( #231, #31, ( #243 ) ) ;
#197 = APPLICATION_PROTOCOL_DEFINITION ( 'international standard', 'config_control_design', 1994, #75 ) ;
#198 = EDGE_LOOP ( 'NONE', ( #183 ) ) ;
#199 = PERSON_AND_ORGANIZATION ( #136, #193 ) ;
#200 = CIRCLE ( 'NONE', #10, 2.743999999999997996 ) ;
#201 = EDGE_LOOP ( 'NONE', ( #163 ) ) ;
#202 = CARTESIAN_POINT ( 'NONE',  ( 4.435302983357493504E-14, -1.147324965416449501E-15, 12.70321262787297556 ) ) ;
#203 = AXIS2_PLACEMENT_3D ( 'NONE', #212, #194, #169 ) ;
#204 = DIRECTION ( 'NONE',  ( -3.491481338843133355E-15, 9.031770143711729009E-17, -1.000000000000000000 ) ) ;
#205 = FACE_OUTER_BOUND ( 'NONE', #7, .T. ) ;
#206 = ORIENTED_EDGE ( 'NONE', *, *, #39, .F. ) ;
#207 = CARTESIAN_POINT ( 'NONE',  ( 4.885231259955590439E-14, -1.263712492114123682E-15, 13.99185842870425134 ) ) ;
#208 = AXIS2_PLACEMENT_3D ( 'NONE', #223, #148, #149 ) ;
#209 = CARTESIAN_POINT ( 'NONE',  ( 1.396592535537253342E-15, 2.743999999999997996, 0.3999999999999999667 ) ) ;
#210 = MECHANICAL_CONTEXT ( 'NONE', #75, 'mechanical' ) ;
#211 = CARTESIAN_POINT ( 'NONE',  ( 4.435302983357493504E-14, 2.743999999999998440, 12.70321262787297556 ) ) ;
#212 = CARTESIAN_POINT ( 'NONE',  ( 2.779219145719134403E-13, -7.189289034394536528E-15, 79.60000000000000853 ) ) ;
#213 = APPROVAL_STATUS ( 'not_yet_approved' ) ;
#214 = APPROVAL_ROLE ( '' ) ;
#215 = ORIENTED_EDGE ( 'NONE', *, *, #142, .T. ) ;
#216 = PERSON_AND_ORGANIZATION ( #136, #193 ) ;
#217 = AXIS2_PLACEMENT_3D ( 'NONE', #186, #129, #224 ) ;
#218 = COORDINATED_UNIVERSAL_TIME_OFFSET ( 1, 0, .AHEAD. ) ;
#219 = CC_DESIGN_DATE_AND_TIME_ASSIGNMENT ( #143, #232, ( #160 ) ) ;
#220 = ORIENTED_EDGE ( 'NONE', *, *, #43, .F. ) ;
#221 = LOCAL_TIME ( 11, 3, 58.00000000000000000, #218 ) ;
#222 = ORIENTED_EDGE ( 'NONE', *, *, #191, .F. ) ;
#223 = CARTESIAN_POINT ( 'NONE',  ( 2.779219145719134403E-13, -7.189289034394536528E-15, 79.60000000000000853 ) ) ;
#224 = DIRECTION ( 'NONE',  ( 3.153425691349006731E-31, 1.000000000000000000, 9.031770143711729009E-17 ) ) ;
#225 = DIRECTION ( 'NONE',  ( -1.824860734477703071E-30, 1.000000000000000000, -5.334085032271983081E-16 ) ) ;
#226 = AXIS2_PLACEMENT_3D ( 'NONE', #135, #195, #25 ) ;
#227 = ADVANCED_FACE ( 'NONE', ( #21 ), #79, .T. ) ;
#228 = DIRECTION ( 'NONE',  ( -2.245982442434100641E-30, 1.000000000000000000, -6.321878556766807581E-16 ) ) ;
#229 = VERTEX_POINT ( 'NONE', #96 ) ;
#230 = AXIS2_PLACEMENT_3D ( 'NONE', #24, #190, #95 ) ;
#231 = PERSON_AND_ORGANIZATION ( #136, #193 ) ;
#232 = DATE_TIME_ROLE ( 'classification_date' ) ;
#233 = DATE_AND_TIME ( #28, #27 ) ;
#234 = EDGE_LOOP ( 'NONE', ( #188 ) ) ;
#235 = DIRECTION ( 'NONE',  ( 3.491481338843133355E-15, 5.263066007244902377E-16, 1.000000000000000000 ) ) ;
#236 = DIRECTION ( 'NONE',  ( 1.837589674939521578E-30, -1.000000000000000000, 5.263066007244902377E-16 ) ) ;
#237 = AXIS2_PLACEMENT_3D ( 'NONE', #50, #185, #33 ) ;
#238 = FACE_OUTER_BOUND ( 'NONE', #45, .T. ) ;
#239 = FACE_BOUND ( 'NONE', #14, .T. ) ;
#240 = CARTESIAN_POINT ( 'NONE',  ( 1.396592535537258272E-15, 2.105226402897968642E-16, 0.4000000000000014100 ) ) ;
#241 = CC_DESIGN_PERSON_AND_ORGANIZATION_ASSIGNMENT ( #26, #99, ( #94 ) ) ;
#242 = AXIS2_PLACEMENT_3D ( 'NONE', #58, #3, #228 ) ;
#243 = PRODUCT_DEFINITION_FORMATION_WITH_SPECIFIED_SOURCE ( 'ANY', '', #94, .NOT_KNOWN. ) ;
ENDSEC;
END-ISO-10303-21;
