ISO-10303-21;
HEADER;
FILE_DESCRIPTION (( 'STEP AP203' ),
    '1' );
FILE_NAME ('321451.step',
    '2021-11-26T10:03:57',
    ( '' ),
    ( '' ),
    'SwSTEP 2.0',
    'SolidWorks 2019',
    '' );
FILE_SCHEMA (( 'CONFIG_CONTROL_DESIGN' ));
ENDSEC;

DATA;
#1 = CYLINDRICAL_SURFACE ( 'NONE', #119, 1.999999999999993561 ) ;
#2 = FACE_OUTER_BOUND ( 'NONE', #16, .T. ) ;
#3 = AXIS2_PLACEMENT_3D ( 'NONE', #214, #165, #178 ) ;
#4 = LOCAL_TIME ( 11, 3, 57.00000000000000000, #207 ) ;
#5 = ORIENTED_EDGE ( 'NONE', *, *, #223, .T. ) ;
#6 = CARTESIAN_POINT ( 'NONE',  ( 0.0000000000000000000, 0.0000000000000000000, 0.0000000000000000000 ) ) ;
#7 = ADVANCED_BREP_SHAPE_REPRESENTATION ( '321451', ( #72, #75, #120 ), #137 ) ;
#8 = CARTESIAN_POINT ( 'NONE',  ( 4.438326694893771639E-14, 2.738999999999998103, 12.71187288191082132 ) ) ;
#9 = AXIS2_PLACEMENT_3D ( 'NONE', #70, #46, #146 ) ;
#10 = EDGE_LOOP ( 'NONE', ( #190 ) ) ;
#11 = DIRECTION ( 'NONE',  ( 3.491481338843133355E-15, 5.257811785932623321E-16, 1.000000000000000000 ) ) ;
#12 = APPROVAL ( #36, 'UNSPECIFIED' ) ;
#13 = AXIS2_PLACEMENT_3D ( 'NONE', #169, #185, #171 ) ;
#14 = APPROVAL_DATE_TIME ( #161, #179 ) ;
#15 = COORDINATED_UNIVERSAL_TIME_OFFSET ( 1, 0, .AHEAD. ) ;
#16 = EDGE_LOOP ( 'NONE', ( #74 ) ) ;
#17 = CC_DESIGN_PERSON_AND_ORGANIZATION_ASSIGNMENT ( #225, #175, ( #212 ) ) ;
#18 = LOCAL_TIME ( 11, 3, 57.00000000000000000, #174 ) ;
#19 = DATE_AND_TIME ( #118, #18 ) ;
#20 = PERSON_AND_ORGANIZATION ( #144, #80 ) ;
#21 = DESIGN_CONTEXT ( 'detailed design', #69, 'design' ) ;
#22 = LOCAL_TIME ( 11, 3, 57.00000000000000000, #102 ) ;
#23 = DIRECTION ( 'NONE',  ( 0.0000000000000000000, 1.000000000000000000, 0.0000000000000000000 ) ) ;
#24 = DIRECTION ( 'NONE',  ( 0.0000000000000000000, 1.000000000000000000, 0.0000000000000000000 ) ) ;
#25 = EDGE_CURVE ( 'NONE', #113, #113, #200, .T. ) ;
#26 = FACE_OUTER_BOUND ( 'NONE', #125, .T. ) ;
#27 = CARTESIAN_POINT ( 'NONE',  ( 4.438326694893771639E-14, 2.738999999999998103, 12.71187288191082132 ) ) ;
#28 = ORIENTED_EDGE ( 'NONE', *, *, #82, .F. ) ;
#29 = DIRECTION ( 'NONE',  ( 0.0000000000000000000, 1.000000000000000000, 0.0000000000000000000 ) ) ;
#30 = ORIENTED_EDGE ( 'NONE', *, *, #229, .F. ) ;
#31 = CC_DESIGN_PERSON_AND_ORGANIZATION_ASSIGNMENT ( #20, #61, ( #212 ) ) ;
#32 = VERTEX_POINT ( 'NONE', #232 ) ;
#33 = FACE_OUTER_BOUND ( 'NONE', #151, .T. ) ;
#34 = PLANE ( 'NONE',  #195 ) ;
#35 = ADVANCED_FACE ( 'NONE', ( #147, #103 ), #87, .T. ) ;
#36 = APPROVAL_STATUS ( 'not_yet_approved' ) ;
#37 = APPROVAL_PERSON_ORGANIZATION ( #138, #124, #224 ) ;
#38 = PERSON_AND_ORGANIZATION_ROLE ( 'design_owner' ) ;
#39 = ADVANCED_FACE ( 'NONE', ( #86, #2 ), #56, .T. ) ;
#40 = DATE_AND_TIME ( #176, #116 ) ;
#41 = CC_DESIGN_SECURITY_CLASSIFICATION ( #112, ( #212 ) ) ;
#42 = CC_DESIGN_PERSON_AND_ORGANIZATION_ASSIGNMENT ( #140, #38, ( #98 ) ) ;
#43 = FACE_OUTER_BOUND ( 'NONE', #149, .T. ) ;
#44 = DIRECTION ( 'NONE',  ( -3.491481338843133355E-15, -5.257811785932623321E-16, -1.000000000000000000 ) ) ;
#45 = ADVANCED_FACE ( 'NONE', ( #66, #194 ), #1, .T. ) ;
#46 = DIRECTION ( 'NONE',  ( -3.491481338843133355E-15, -5.257811785932623321E-16, -1.000000000000000000 ) ) ;
#47 = CC_DESIGN_APPROVAL ( #124, ( #112 ) ) ;
#48 = ORIENTED_EDGE ( 'NONE', *, *, #240, .T. ) ;
#49 = FACE_BOUND ( 'NONE', #217, .T. ) ;
#50 = ORIENTED_EDGE ( 'NONE', *, *, #223, .F. ) ;
#51 = DIRECTION ( 'NONE',  ( 0.0000000000000000000, 1.000000000000000000, 0.0000000000000000000 ) ) ;
#52 = CLOSED_SHELL ( 'NONE', ( #89, #35, #101, #60 ) ) ;
#53 = CC_DESIGN_APPROVAL ( #179, ( #212 ) ) ;
#54 = ADVANCED_FACE ( 'NONE', ( #106, #210 ), #188, .T. ) ;
#55 = APPLICATION_PROTOCOL_DEFINITION ( 'international standard', 'config_control_design', 1994, #69 ) ;
#56 = CONICAL_SURFACE ( 'NONE', #91, 2.738999999999999435, 0.5235987755982929315 ) ;
#57 = APPLICATION_CONTEXT ( 'configuration controlled 3d designs of mechanical parts and assemblies' ) ;
#58 = PERSON_AND_ORGANIZATION_ROLE ( 'creator' ) ;
#59 = PRODUCT_DEFINITION_SHAPE ( 'NONE', 'NONE',  #197 ) ;
#60 = ADVANCED_FACE ( 'NONE', ( #43 ), #228, .T. ) ;
#61 = PERSON_AND_ORGANIZATION_ROLE ( 'creator' ) ;
#62 = ORIENTED_EDGE ( 'NONE', *, *, #25, .T. ) ;
#63 = LOCAL_TIME ( 11, 3, 57.00000000000000000, #15 ) ;
#64 = ORIENTED_EDGE ( 'NONE', *, *, #65, .T. ) ;
#65 = EDGE_CURVE ( 'NONE', #32, #32, #208, .T. ) ;
#66 = FACE_OUTER_BOUND ( 'NONE', #242, .T. ) ;
#67 = DIRECTION ( 'NONE',  ( 0.0000000000000000000, 1.000000000000000000, 0.0000000000000000000 ) ) ;
#68 = DIRECTION ( 'NONE',  ( -3.491481338843133355E-15, 9.031770143711729009E-17, -1.000000000000000000 ) ) ;
#69 = APPLICATION_CONTEXT ( 'configuration controlled 3d designs of mechanical parts and assemblies' ) ;
#70 = CARTESIAN_POINT ( 'NONE',  ( -2.302091961232098411E-30, 2.508059892324147722, -6.593453430843405367E-16 ) ) ;
#71 = EDGE_LOOP ( 'NONE', ( #88 ) ) ;
#72 = MANIFOLD_SOLID_BREP ( 'Corps-Déplacer/Copier1[1]', #182 ) ;
#73 =( LENGTH_UNIT ( ) NAMED_UNIT ( * ) SI_UNIT ( .MILLI., .METRE. ) );
#74 = ORIENTED_EDGE ( 'NONE', *, *, #25, .F. ) ;
#75 = MANIFOLD_SOLID_BREP ( 'Corps-Déplacer/Copier1[2]', #52 ) ;
#76 = CC_DESIGN_PERSON_AND_ORGANIZATION_ASSIGNMENT ( #135, #155, ( #112 ) ) ;
#77 = DIRECTION ( 'NONE',  ( -3.491481338843133355E-15, 9.031770143711729009E-17, -1.000000000000000000 ) ) ;
#78 = DATE_TIME_ROLE ( 'creation_date' ) ;
#79 = APPROVAL_DATE_TIME ( #19, #124 ) ;
#80 = ORGANIZATION ( 'UNSPECIFIED', 'UNSPECIFIED', '' ) ;
#81 = APPROVAL_STATUS ( 'not_yet_approved' ) ;
#82 = EDGE_CURVE ( 'NONE', #221, #221, #108, .T. ) ;
#83 = AXIS2_PLACEMENT_3D ( 'NONE', #234, #233, #51 ) ;
#84 = CARTESIAN_POINT ( 'NONE',  ( 4.604183922464196821E-30, 6.933427431737268940E-31, 1.318690686168681073E-15 ) ) ;
#85 = CIRCLE ( 'NONE', #132, 2.738999999999991442 ) ;
#86 = FACE_BOUND ( 'NONE', #100, .T. ) ;
#87 = CYLINDRICAL_SURFACE ( 'NONE', #191, 2.738999999999994550 ) ;
#88 = ORIENTED_EDGE ( 'NONE', *, *, #213, .F. ) ;
#89 = ADVANCED_FACE ( 'NONE', ( #26 ), #109, .T. ) ;
#90 = CARTESIAN_POINT ( 'NONE',  ( 2.779219145719134403E-13, -7.189289034394536528E-15, 79.60000000000000853 ) ) ;
#91 = AXIS2_PLACEMENT_3D ( 'NONE', #226, #145, #24 ) ;
#92 = CIRCLE ( 'NONE', #157, 1.999999999999995337 ) ;
#93 = DIRECTION ( 'NONE',  ( 3.153425691349006731E-31, 1.000000000000000000, 9.031770143711729009E-17 ) ) ;
#94 = CARTESIAN_POINT ( 'NONE',  ( 1.396592535537253342E-15, 2.738999999999997659, 0.3999999999999999667 ) ) ;
#95 = CARTESIAN_POINT ( 'NONE',  ( 4.604183922464196821E-30, 6.933427431737268940E-31, 1.318690686168681073E-15 ) ) ;
#96 = COORDINATED_UNIVERSAL_TIME_OFFSET ( 1, 0, .AHEAD. ) ;
#97 = ADVANCED_FACE ( 'NONE', ( #219 ), #114, .T. ) ;
#98 = PRODUCT ( '321451', '321451', '', ( #205 ) ) ;
#99 = PERSON_AND_ORGANIZATION ( #144, #80 ) ;
#100 = EDGE_LOOP ( 'NONE', ( #107 ) ) ;
#101 = ADVANCED_FACE ( 'NONE', ( #183, #49 ), #189, .T. ) ;
#102 = COORDINATED_UNIVERSAL_TIME_OFFSET ( 1, 0, .AHEAD. ) ;
#103 = FACE_OUTER_BOUND ( 'NONE', #142, .T. ) ;
#104 = AXIS2_PLACEMENT_3D ( 'NONE', #192, #123, #23 ) ;
#105 = DIRECTION ( 'NONE',  ( -3.491481338843133355E-15, -5.257811785932623321E-16, -1.000000000000000000 ) ) ;
#106 = FACE_BOUND ( 'NONE', #180, .T. ) ;
#107 = ORIENTED_EDGE ( 'NONE', *, *, #82, .T. ) ;
#108 = CIRCLE ( 'NONE', #104, 1.999999999999991784 ) ;
#109 = PLANE ( 'NONE',  #131 ) ;
#110 = VERTEX_POINT ( 'NONE', #27 ) ;
#111 = DIRECTION ( 'NONE',  ( 0.0000000000000000000, 0.0000000000000000000, 1.000000000000000000 ) ) ;
#112 = SECURITY_CLASSIFICATION ( '', '', #241 ) ;
#113 = VERTEX_POINT ( 'NONE', #8 ) ;
#114 = PLANE ( 'NONE',  #13 ) ;
#115 = DATE_AND_TIME ( #206, #22 ) ;
#116 = LOCAL_TIME ( 11, 3, 57.00000000000000000, #96 ) ;
#117 = DATE_AND_TIME ( #235, #4 ) ;
#118 = CALENDAR_DATE ( 2021, 26, 11 ) ;
#119 = AXIS2_PLACEMENT_3D ( 'NONE', #143, #68, #211 ) ;
#120 = AXIS2_PLACEMENT_3D ( 'NONE', #6, #111, #121 ) ;
#121 = DIRECTION ( 'NONE',  ( 1.000000000000000000, 0.0000000000000000000, 0.0000000000000000000 ) ) ;
#122 = ORIENTED_EDGE ( 'NONE', *, *, #65, .F. ) ;
#123 = DIRECTION ( 'NONE',  ( -3.491481338843133355E-15, 9.031770143711729009E-17, -1.000000000000000000 ) ) ;
#124 = APPROVAL ( #187, 'UNSPECIFIED' ) ;
#125 = EDGE_LOOP ( 'NONE', ( #50 ) ) ;
#126 = AXIS2_PLACEMENT_3D ( 'NONE', #84, #44, #164 ) ;
#127 = DIRECTION ( 'NONE',  ( -1.835755173373324324E-30, 1.000000000000000000, -5.257811785932623321E-16 ) ) ;
#128 = ORIENTED_EDGE ( 'NONE', *, *, #240, .F. ) ;
#129 = APPLICATION_PROTOCOL_DEFINITION ( 'international standard', 'config_control_design', 1994, #57 ) ;
#130 = CARTESIAN_POINT ( 'NONE',  ( 1.396592535537258272E-15, 2.103124714373056872E-16, 0.4000000000000014100 ) ) ;
#131 = AXIS2_PLACEMENT_3D ( 'NONE', #227, #215, #202 ) ;
#132 = AXIS2_PLACEMENT_3D ( 'NONE', #231, #133, #148 ) ;
#133 = DIRECTION ( 'NONE',  ( -3.491481338843133355E-15, -5.257811785932623321E-16, -1.000000000000000000 ) ) ;
#134 = UNCERTAINTY_MEASURE_WITH_UNIT (LENGTH_MEASURE( 1.000000000000000082E-05 ), #73, 'distance_accuracy_value', 'NONE');
#135 = PERSON_AND_ORGANIZATION ( #144, #80 ) ;
#136 = APPROVAL_ROLE ( '' ) ;
#137 =( GEOMETRIC_REPRESENTATION_CONTEXT ( 3 ) GLOBAL_UNCERTAINTY_ASSIGNED_CONTEXT ( ( #134 ) ) GLOBAL_UNIT_ASSIGNED_CONTEXT ( ( #73, #150, #218 ) ) REPRESENTATION_CONTEXT ( 'NONE', 'WORKASPACE' ) );
#138 = PERSON_AND_ORGANIZATION ( #144, #80 ) ;
#139 = ADVANCED_FACE ( 'NONE', ( #33 ), #34, .T. ) ;
#140 = PERSON_AND_ORGANIZATION ( #144, #80 ) ;
#141 = APPROVAL_ROLE ( '' ) ;
#142 = EDGE_LOOP ( 'NONE', ( #30 ) ) ;
#143 = CARTESIAN_POINT ( 'NONE',  ( 0.0000000000000000000, 0.0000000000000000000, 0.0000000000000000000 ) ) ;
#144 = PERSON ( 'UNSPECIFIED', 'UNSPECIFIED', 'UNSPECIFIED', ('UNSPECIFIED'), ('UNSPECIFIED'), ('UNSPECIFIED') ) ;
#145 = DIRECTION ( 'NONE',  ( -3.491481338843133355E-15, 9.031770143711729009E-17, -1.000000000000000000 ) ) ;
#146 = DIRECTION ( 'NONE',  ( -1.835755173373324324E-30, 1.000000000000000000, -5.257811785932623321E-16 ) ) ;
#147 = FACE_OUTER_BOUND ( 'NONE', #239, .T. ) ;
#148 = DIRECTION ( 'NONE',  ( -2.250082446892725165E-30, 1.000000000000000000, -6.333419043361856818E-16 ) ) ;
#149 = EDGE_LOOP ( 'NONE', ( #64 ) ) ;
#150 =( NAMED_UNIT ( * ) PLANE_ANGLE_UNIT ( ) SI_UNIT ( $, .RADIAN. ) );
#151 = EDGE_LOOP ( 'NONE', ( #62 ) ) ;
#152 = DIRECTION ( 'NONE',  ( -1.828191988100335146E-30, 1.000000000000000000, -5.343822317836554395E-16 ) ) ;
#153 = CIRCLE ( 'NONE', #177, 2.738999999999997659 ) ;
#154 = CARTESIAN_POINT ( 'NONE',  ( 4.438326694893771639E-14, 2.738999999999998103, 12.71187288191082132 ) ) ;
#155 = PERSON_AND_ORGANIZATION_ROLE ( 'classification_officer' ) ;
#156 = SHAPE_DEFINITION_REPRESENTATION ( #59, #7 ) ;
#157 = AXIS2_PLACEMENT_3D ( 'NONE', #90, #77, #29 ) ;
#158 = ORIENTED_EDGE ( 'NONE', *, *, #213, .T. ) ;
#159 = PRODUCT_RELATED_PRODUCT_CATEGORY ( 'detail', '', ( #98 ) ) ;
#160 = DATE_TIME_ROLE ( 'classification_date' ) ;
#161 = DATE_AND_TIME ( #204, #63 ) ;
#162 = APPROVAL_PERSON_ORGANIZATION ( #186, #12, #141 ) ;
#163 = DIRECTION ( 'NONE',  ( -3.491481338843133355E-15, 9.031770143711729009E-17, -1.000000000000000000 ) ) ;
#164 = DIRECTION ( 'NONE',  ( -1.835755173373324324E-30, 1.000000000000000000, -5.257811785932623321E-16 ) ) ;
#165 = DIRECTION ( 'NONE',  ( -3.491481338843133355E-15, 9.031770143711729009E-17, -1.000000000000000000 ) ) ;
#166 = CARTESIAN_POINT ( 'NONE',  ( 0.0000000000000000000, 0.0000000000000000000, 0.0000000000000000000 ) ) ;
#167 = EDGE_LOOP ( 'NONE', ( #28 ) ) ;
#168 = CARTESIAN_POINT ( 'NONE',  ( 2.793185071074506684E-13, 1.599999999999987876, 80.00000000000000000 ) ) ;
#169 = CARTESIAN_POINT ( 'NONE',  ( 2.793185071074506684E-13, -7.225416114969383207E-15, 80.00000000000000000 ) ) ;
#170 = CARTESIAN_POINT ( 'NONE',  ( 2.779219145719134403E-13, 1.999999999999988010, 79.60000000000000853 ) ) ;
#171 = DIRECTION ( 'NONE',  ( -3.153425691349006731E-31, -1.000000000000000000, -9.031770143711729009E-17 ) ) ;
#172 = CIRCLE ( 'NONE', #83, 1.599999999999994982 ) ;
#173 = DIRECTION ( 'NONE',  ( 1.835755173373324324E-30, -1.000000000000000000, 5.257811785932623321E-16 ) ) ;
#174 = COORDINATED_UNIVERSAL_TIME_OFFSET ( 1, 0, .AHEAD. ) ;
#175 = PERSON_AND_ORGANIZATION_ROLE ( 'design_supplier' ) ;
#176 = CALENDAR_DATE ( 2021, 26, 11 ) ;
#177 = AXIS2_PLACEMENT_3D ( 'NONE', #130, #199, #152 ) ;
#178 = DIRECTION ( 'NONE',  ( 0.0000000000000000000, 1.000000000000000000, 0.0000000000000000000 ) ) ;
#179 = APPROVAL ( #81, 'UNSPECIFIED' ) ;
#180 = EDGE_LOOP ( 'NONE', ( #158 ) ) ;
#181 = VERTEX_POINT ( 'NONE', #168 ) ;
#182 = CLOSED_SHELL ( 'NONE', ( #97, #54, #45, #39, #139 ) ) ;
#183 = FACE_OUTER_BOUND ( 'NONE', #10, .T. ) ;
#184 = CARTESIAN_POINT ( 'NONE',  ( 4.885231259955590439E-14, 1.999999999999990452, 13.99185842870425134 ) ) ;
#185 = DIRECTION ( 'NONE',  ( 3.491481338843133355E-15, -9.031770143711729009E-17, 1.000000000000000000 ) ) ;
#186 = PERSON_AND_ORGANIZATION ( #144, #80 ) ;
#187 = APPROVAL_STATUS ( 'not_yet_approved' ) ;
#188 = CONICAL_SURFACE ( 'NONE', #3, 1.999999999999995337, 0.7853981633974516097 ) ;
#189 = CONICAL_SURFACE ( 'NONE', #230, 2.508059892324147722, 0.5235987755982978165 ) ;
#190 = ORIENTED_EDGE ( 'NONE', *, *, #229, .T. ) ;
#191 = AXIS2_PLACEMENT_3D ( 'NONE', #166, #105, #127 ) ;
#192 = CARTESIAN_POINT ( 'NONE',  ( 4.885231259955590439E-14, -1.263712492114123682E-15, 13.99185842870425134 ) ) ;
#193 = CC_DESIGN_PERSON_AND_ORGANIZATION_ASSIGNMENT ( #99, #58, ( #197 ) ) ;
#194 = FACE_OUTER_BOUND ( 'NONE', #167, .T. ) ;
#195 = AXIS2_PLACEMENT_3D ( 'NONE', #154, #198, #93 ) ;
#196 = EDGE_LOOP ( 'NONE', ( #128 ) ) ;
#197 = PRODUCT_DEFINITION ( 'UNKNOWN', '', #212, #21 ) ;
#198 = DIRECTION ( 'NONE',  ( -3.491481338843133355E-15, 9.031770143711729009E-17, -1.000000000000000000 ) ) ;
#199 = DIRECTION ( 'NONE',  ( -3.491481338843133355E-15, -5.257811785932623321E-16, -1.000000000000000000 ) ) ;
#200 = CIRCLE ( 'NONE', #238, 2.738999999999999435 ) ;
#201 = VERTEX_POINT ( 'NONE', #170 ) ;
#202 = DIRECTION ( 'NONE',  ( 1.835755173373324324E-30, -1.000000000000000000, 5.257811785932623321E-16 ) ) ;
#203 = APPROVAL_DATE_TIME ( #117, #12 ) ;
#204 = CALENDAR_DATE ( 2021, 26, 11 ) ;
#205 = MECHANICAL_CONTEXT ( 'NONE', #57, 'mechanical' ) ;
#206 = CALENDAR_DATE ( 2021, 26, 11 ) ;
#207 = COORDINATED_UNIVERSAL_TIME_OFFSET ( 1, 0, .AHEAD. ) ;
#208 = CIRCLE ( 'NONE', #126, 2.508059892324147722 ) ;
#209 = CC_DESIGN_DATE_AND_TIME_ASSIGNMENT ( #115, #78, ( #197 ) ) ;
#210 = FACE_OUTER_BOUND ( 'NONE', #196, .T. ) ;
#211 = DIRECTION ( 'NONE',  ( 3.153425691349006731E-31, 1.000000000000000000, 9.031770143711729009E-17 ) ) ;
#212 = PRODUCT_DEFINITION_FORMATION_WITH_SPECIFIED_SOURCE ( 'ANY', '', #98, .NOT_KNOWN. ) ;
#213 = EDGE_CURVE ( 'NONE', #181, #181, #172, .T. ) ;
#214 = CARTESIAN_POINT ( 'NONE',  ( 2.779219145719134403E-13, -7.189289034394536528E-15, 79.60000000000000853 ) ) ;
#215 = DIRECTION ( 'NONE',  ( 3.491481338843133355E-15, 5.257811785932623321E-16, 1.000000000000000000 ) ) ;
#216 = APPROVAL_PERSON_ORGANIZATION ( #237, #179, #136 ) ;
#217 = EDGE_LOOP ( 'NONE', ( #122 ) ) ;
#218 =( NAMED_UNIT ( * ) SI_UNIT ( $, .STERADIAN. ) SOLID_ANGLE_UNIT ( ) );
#219 = FACE_OUTER_BOUND ( 'NONE', #71, .T. ) ;
#220 = VERTEX_POINT ( 'NONE', #94 ) ;
#221 = VERTEX_POINT ( 'NONE', #184 ) ;
#222 = CARTESIAN_POINT ( 'NONE',  ( 4.438326694893771639E-14, -1.148107139655009192E-15, 12.71187288191082132 ) ) ;
#223 = EDGE_CURVE ( 'NONE', #110, #110, #85, .T. ) ;
#224 = APPROVAL_ROLE ( '' ) ;
#225 = PERSON_AND_ORGANIZATION ( #144, #80 ) ;
#226 = CARTESIAN_POINT ( 'NONE',  ( 4.438326694893771639E-14, -1.148107139655009192E-15, 12.71187288191082132 ) ) ;
#227 = CARTESIAN_POINT ( 'NONE',  ( 4.438326694893771639E-14, 6.683663505978800845E-15, 12.71187288191082132 ) ) ;
#228 = PLANE ( 'NONE',  #9 ) ;
#229 = EDGE_CURVE ( 'NONE', #220, #220, #153, .T. ) ;
#230 = AXIS2_PLACEMENT_3D ( 'NONE', #95, #11, #173 ) ;
#231 = CARTESIAN_POINT ( 'NONE',  ( 4.438326694893772270E-14, 6.683663505978802423E-15, 12.71187288191082310 ) ) ;
#232 = CARTESIAN_POINT ( 'NONE',  ( 0.0000000000000000000, 2.508059892324147722, 0.0000000000000000000 ) ) ;
#233 = DIRECTION ( 'NONE',  ( -3.491481338843133355E-15, 9.031770143711729009E-17, -1.000000000000000000 ) ) ;
#234 = CARTESIAN_POINT ( 'NONE',  ( 2.793185071074506684E-13, -7.225416114969383207E-15, 80.00000000000000000 ) ) ;
#235 = CALENDAR_DATE ( 2021, 26, 11 ) ;
#236 = CC_DESIGN_DATE_AND_TIME_ASSIGNMENT ( #40, #160, ( #112 ) ) ;
#237 = PERSON_AND_ORGANIZATION ( #144, #80 ) ;
#238 = AXIS2_PLACEMENT_3D ( 'NONE', #222, #163, #67 ) ;
#239 = EDGE_LOOP ( 'NONE', ( #5 ) ) ;
#240 = EDGE_CURVE ( 'NONE', #201, #201, #92, .T. ) ;
#241 = SECURITY_CLASSIFICATION_LEVEL ( 'unclassified' ) ;
#242 = EDGE_LOOP ( 'NONE', ( #48 ) ) ;
#243 = CC_DESIGN_APPROVAL ( #12, ( #197 ) ) ;
ENDSEC;
END-ISO-10303-21;
