ISO-10303-21;
HEADER;
FILE_DESCRIPTION (( 'STEP AP203' ),
    '1' );
FILE_NAME ('321450.step',
    '2021-11-26T10:03:56',
    ( '' ),
    ( '' ),
    'SwSTEP 2.0',
    'SolidWorks 2019',
    '' );
FILE_SCHEMA (( 'CONFIG_CONTROL_DESIGN' ));
ENDSEC;

DATA;
#1 = DATE_AND_TIME ( #230, #202 ) ;
#2 = DIRECTION ( 'NONE',  ( -1.833923169697650012E-30, 1.000000000000000000, -5.252564718863146555E-16 ) ) ;
#3 = FACE_OUTER_BOUND ( 'NONE', #73, .T. ) ;
#4 = EDGE_CURVE ( 'NONE', #166, #166, #127, .T. ) ;
#5 = CALENDAR_DATE ( 2021, 26, 11 ) ;
#6 = DIRECTION ( 'NONE',  ( -3.491481338843133355E-15, -5.252564718863145569E-16, -1.000000000000000000 ) ) ;
#7 = CARTESIAN_POINT ( 'NONE',  ( 2.779219145719134403E-13, 1.999999999999988010, 79.60000000000000853 ) ) ;
#8 = DATE_AND_TIME ( #91, #184 ) ;
#9 = AXIS2_PLACEMENT_3D ( 'NONE', #41, #241, #123 ) ;
#10 = CARTESIAN_POINT ( 'NONE',  ( 4.885231259955590439E-14, 1.999999999999990452, 13.99185842870425134 ) ) ;
#11 = ADVANCED_FACE ( 'NONE', ( #3 ), #193, .T. ) ;
#12 = CC_DESIGN_PERSON_AND_ORGANIZATION_ASSIGNMENT ( #42, #40, ( #90 ) ) ;
#13 = ORIENTED_EDGE ( 'NONE', *, *, #217, .F. ) ;
#14 = CIRCLE ( 'NONE', #163, 1.999999999999991784 ) ;
#15 = DIRECTION ( 'NONE',  ( 0.0000000000000000000, 1.000000000000000000, 0.0000000000000000000 ) ) ;
#16 = DIRECTION ( 'NONE',  ( -3.491481338843133355E-15, 9.031770143711729009E-17, -1.000000000000000000 ) ) ;
#17 = FACE_OUTER_BOUND ( 'NONE', #203, .T. ) ;
#18 = APPROVAL_ROLE ( '' ) ;
#19 = PLANE ( 'NONE',  #9 ) ;
#20 = DIRECTION ( 'NONE',  ( -2.254197447710012508E-30, 1.000000000000000000, -6.345001740953959672E-16 ) ) ;
#21 = DIRECTION ( 'NONE',  ( 1.833923169697650012E-30, -1.000000000000000000, 5.252564718863145569E-16 ) ) ;
#22 = ORGANIZATION ( 'UNSPECIFIED', 'UNSPECIFIED', '' ) ;
#23 = APPROVAL_DATE_TIME ( #104, #72 ) ;
#24 = PLANE ( 'NONE',  #109 ) ;
#25 = CIRCLE ( 'NONE', #79, 1.999999999999995337 ) ;
#26 = ADVANCED_FACE ( 'NONE', ( #17, #36 ), #173, .T. ) ;
#27 = ORIENTED_EDGE ( 'NONE', *, *, #149, .F. ) ;
#28 = ORIENTED_EDGE ( 'NONE', *, *, #80, .F. ) ;
#29 = EDGE_CURVE ( 'NONE', #200, #200, #14, .T. ) ;
#30 = APPROVAL_PERSON_ORGANIZATION ( #191, #72, #141 ) ;
#31 = EDGE_LOOP ( 'NONE', ( #154 ) ) ;
#32 = ORIENTED_EDGE ( 'NONE', *, *, #29, .T. ) ;
#33 = FACE_OUTER_BOUND ( 'NONE', #112, .T. ) ;
#34 = ADVANCED_FACE ( 'NONE', ( #61 ), #161, .T. ) ;
#35 = DIRECTION ( 'NONE',  ( -3.491481338843133355E-15, 9.031770143711729009E-17, -1.000000000000000000 ) ) ;
#36 = FACE_OUTER_BOUND ( 'NONE', #218, .T. ) ;
#37 = PERSON_AND_ORGANIZATION_ROLE ( 'classification_officer' ) ;
#38 = CARTESIAN_POINT ( 'NONE',  ( 2.793185071074506684E-13, -7.225416114969383207E-15, 80.00000000000000000 ) ) ;
#39 = LOCAL_TIME ( 11, 3, 56.00000000000000000, #63 ) ;
#40 = PERSON_AND_ORGANIZATION_ROLE ( 'creator' ) ;
#41 = CARTESIAN_POINT ( 'NONE',  ( -2.295209765837080076E-30, 2.503059892324147828, -6.573742039811602100E-16 ) ) ;
#42 = PERSON_AND_ORGANIZATION ( #139, #22 ) ;
#43 = VERTEX_POINT ( 'NONE', #199 ) ;
#44 = ADVANCED_FACE ( 'NONE', ( #99 ), #19, .T. ) ;
#45 = AXIS2_PLACEMENT_3D ( 'NONE', #152, #55, #76 ) ;
#46 =( NAMED_UNIT ( * ) SI_UNIT ( $, .STERADIAN. ) SOLID_ANGLE_UNIT ( ) );
#47 = AXIS2_PLACEMENT_3D ( 'NONE', #38, #212, #134 ) ;
#48 = ORIENTED_EDGE ( 'NONE', *, *, #57, .T. ) ;
#49 = EDGE_LOOP ( 'NONE', ( #28 ) ) ;
#50 = ORIENTED_EDGE ( 'NONE', *, *, #4, .F. ) ;
#51 = EDGE_LOOP ( 'NONE', ( #238 ) ) ;
#52 = PRODUCT_DEFINITION ( 'UNKNOWN', '', #90, #237 ) ;
#53 = DIRECTION ( 'NONE',  ( -3.491481338843133355E-15, 9.031770143711729009E-17, -1.000000000000000000 ) ) ;
#54 = CARTESIAN_POINT ( 'NONE',  ( 4.590419531674160152E-30, 6.905801101844373468E-31, 1.314748407962320420E-15 ) ) ;
#55 = DIRECTION ( 'NONE',  ( 0.0000000000000000000, 0.0000000000000000000, 1.000000000000000000 ) ) ;
#56 = DIRECTION ( 'NONE',  ( -1.831535426264381003E-30, 1.000000000000000000, -5.155313914525080524E-16 ) ) ;
#57 = EDGE_CURVE ( 'NONE', #43, #43, #183, .T. ) ;
#58 = APPROVAL_ROLE ( '' ) ;
#59 = CARTESIAN_POINT ( 'NONE',  ( 1.396592535537258075E-15, 2.101025887545265376E-16, 0.4000000000000013545 ) ) ;
#60 = PERSON_AND_ORGANIZATION ( #139, #22 ) ;
#61 = FACE_OUTER_BOUND ( 'NONE', #132, .T. ) ;
#62 = CONICAL_SURFACE ( 'NONE', #151, 2.733999999999999542, 0.5235987755982932645 ) ;
#63 = COORDINATED_UNIVERSAL_TIME_OFFSET ( 1, 0, .AHEAD. ) ;
#64 = APPLICATION_PROTOCOL_DEFINITION ( 'international standard', 'config_control_design', 1994, #235 ) ;
#65 = CC_DESIGN_PERSON_AND_ORGANIZATION_ASSIGNMENT ( #87, #37, ( #113 ) ) ;
#66 = VERTEX_POINT ( 'NONE', #146 ) ;
#67 = AXIS2_PLACEMENT_3D ( 'NONE', #175, #224, #20 ) ;
#68 = CARTESIAN_POINT ( 'NONE',  ( 2.793185071074506684E-13, 1.599999999999987876, 80.00000000000000000 ) ) ;
#69 = VERTEX_POINT ( 'NONE', #7 ) ;
#70 = APPROVAL_DATE_TIME ( #8, #225 ) ;
#71 = CLOSED_SHELL ( 'NONE', ( #34, #128, #150, #188, #11 ) ) ;
#72 = APPROVAL ( #145, 'UNSPECIFIED' ) ;
#73 = EDGE_LOOP ( 'NONE', ( #48 ) ) ;
#74 = AXIS2_PLACEMENT_3D ( 'NONE', #192, #102, #2 ) ;
#75 = EDGE_LOOP ( 'NONE', ( #77 ) ) ;
#76 = DIRECTION ( 'NONE',  ( 1.000000000000000000, 0.0000000000000000000, 0.0000000000000000000 ) ) ;
#77 = ORIENTED_EDGE ( 'NONE', *, *, #57, .F. ) ;
#78 = FACE_BOUND ( 'NONE', #185, .T. ) ;
#79 = AXIS2_PLACEMENT_3D ( 'NONE', #227, #16, #15 ) ;
#80 = EDGE_CURVE ( 'NONE', #66, #66, #186, .T. ) ;
#81 = CARTESIAN_POINT ( 'NONE',  ( 4.441350406430049144E-14, -1.148889313893569079E-15, 12.72053313594866708 ) ) ;
#82 = DIRECTION ( 'NONE',  ( -3.491481338843133355E-15, 9.031770143711729009E-17, -1.000000000000000000 ) ) ;
#83 = PRODUCT_DEFINITION_SHAPE ( 'NONE', 'NONE',  #52 ) ;
#84 = CARTESIAN_POINT ( 'NONE',  ( 4.885231259955590439E-14, -1.263712492114123682E-15, 13.99185842870425134 ) ) ;
#85 = PERSON_AND_ORGANIZATION ( #139, #22 ) ;
#86 = CYLINDRICAL_SURFACE ( 'NONE', #223, 1.999999999999993561 ) ;
#87 = PERSON_AND_ORGANIZATION ( #139, #22 ) ;
#88 = CC_DESIGN_PERSON_AND_ORGANIZATION_ASSIGNMENT ( #229, #177, ( #52 ) ) ;
#89 = APPROVAL_DATE_TIME ( #208, #155 ) ;
#90 = PRODUCT_DEFINITION_FORMATION_WITH_SPECIFIED_SOURCE ( 'ANY', '', #197, .NOT_KNOWN. ) ;
#91 = CALENDAR_DATE ( 2021, 26, 11 ) ;
#92 = AXIS2_PLACEMENT_3D ( 'NONE', #176, #122, #103 ) ;
#93 = ORIENTED_EDGE ( 'NONE', *, *, #217, .T. ) ;
#94 = EDGE_LOOP ( 'NONE', ( #93 ) ) ;
#95 = CC_DESIGN_SECURITY_CLASSIFICATION ( #113, ( #90 ) ) ;
#96 = APPROVAL_PERSON_ORGANIZATION ( #159, #225, #18 ) ;
#97 = APPLICATION_PROTOCOL_DEFINITION ( 'international standard', 'config_control_design', 1994, #110 ) ;
#98 = DIRECTION ( 'NONE',  ( 1.833923169697650012E-30, -1.000000000000000000, 5.252564718863146555E-16 ) ) ;
#99 = FACE_OUTER_BOUND ( 'NONE', #94, .T. ) ;
#100 = PERSON_AND_ORGANIZATION ( #139, #22 ) ;
#101 = APPROVAL_PERSON_ORGANIZATION ( #100, #155, #58 ) ;
#102 = DIRECTION ( 'NONE',  ( -3.491481338843133355E-15, -5.252564718863145569E-16, -1.000000000000000000 ) ) ;
#103 = DIRECTION ( 'NONE',  ( 0.0000000000000000000, 1.000000000000000000, 0.0000000000000000000 ) ) ;
#104 = DATE_AND_TIME ( #108, #198 ) ;
#105 = FACE_BOUND ( 'NONE', #133, .T. ) ;
#106 = CC_DESIGN_PERSON_AND_ORGANIZATION_ASSIGNMENT ( #60, #196, ( #197 ) ) ;
#107 = COORDINATED_UNIVERSAL_TIME_OFFSET ( 1, 0, .AHEAD. ) ;
#108 = CALENDAR_DATE ( 2021, 26, 11 ) ;
#109 = AXIS2_PLACEMENT_3D ( 'NONE', #181, #180, #21 ) ;
#110 = APPLICATION_CONTEXT ( 'configuration controlled 3d designs of mechanical parts and assemblies' ) ;
#111 = CC_DESIGN_PERSON_AND_ORGANIZATION_ASSIGNMENT ( #85, #165, ( #90 ) ) ;
#112 = EDGE_LOOP ( 'NONE', ( #153 ) ) ;
#113 = SECURITY_CLASSIFICATION ( '', '', #213 ) ;
#114 = UNCERTAINTY_MEASURE_WITH_UNIT (LENGTH_MEASURE( 1.000000000000000082E-05 ), #167, 'distance_accuracy_value', 'NONE');
#115 = FACE_BOUND ( 'NONE', #240, .T. ) ;
#116 = MECHANICAL_CONTEXT ( 'NONE', #110, 'mechanical' ) ;
#117 = DIRECTION ( 'NONE',  ( -3.491481338843133355E-15, 9.031770143711729009E-17, -1.000000000000000000 ) ) ;
#118 = EDGE_CURVE ( 'NONE', #69, #69, #25, .T. ) ;
#119 = DIRECTION ( 'NONE',  ( -3.491481338843133355E-15, -5.252564718863145569E-16, -1.000000000000000000 ) ) ;
#120 = COORDINATED_UNIVERSAL_TIME_OFFSET ( 1, 0, .AHEAD. ) ;
#121 = AXIS2_PLACEMENT_3D ( 'NONE', #189, #35, #156 ) ;
#122 = DIRECTION ( 'NONE',  ( -3.491481338843133355E-15, 9.031770143711729009E-17, -1.000000000000000000 ) ) ;
#123 = DIRECTION ( 'NONE',  ( -1.833923169697650012E-30, 1.000000000000000000, -5.252564718863145569E-16 ) ) ;
#124 = FACE_OUTER_BOUND ( 'NONE', #49, .T. ) ;
#125 = COORDINATED_UNIVERSAL_TIME_OFFSET ( 1, 0, .AHEAD. ) ;
#126 = VERTEX_POINT ( 'NONE', #232 ) ;
#127 = CIRCLE ( 'NONE', #131, 1.599999999999994982 ) ;
#128 = ADVANCED_FACE ( 'NONE', ( #105, #207 ), #190, .T. ) ;
#129 = SHAPE_DEFINITION_REPRESENTATION ( #83, #219 ) ;
#130 = ORIENTED_EDGE ( 'NONE', *, *, #80, .T. ) ;
#131 = AXIS2_PLACEMENT_3D ( 'NONE', #209, #140, #206 ) ;
#132 = EDGE_LOOP ( 'NONE', ( #50 ) ) ;
#133 = EDGE_LOOP ( 'NONE', ( #221 ) ) ;
#134 = DIRECTION ( 'NONE',  ( -3.153425691349006731E-31, -1.000000000000000000, -9.031770143711729009E-17 ) ) ;
#135 = CONICAL_SURFACE ( 'NONE', #157, 2.503059892324147828, 0.5235987755982978165 ) ;
#136 = FACE_OUTER_BOUND ( 'NONE', #75, .T. ) ;
#137 = DIRECTION ( 'NONE',  ( 0.0000000000000000000, 1.000000000000000000, 0.0000000000000000000 ) ) ;
#138 = DATE_TIME_ROLE ( 'classification_date' ) ;
#139 = PERSON ( 'UNSPECIFIED', 'UNSPECIFIED', 'UNSPECIFIED', ('UNSPECIFIED'), ('UNSPECIFIED'), ('UNSPECIFIED') ) ;
#140 = DIRECTION ( 'NONE',  ( -3.491481338843133355E-15, 9.031770143711729009E-17, -1.000000000000000000 ) ) ;
#141 = APPROVAL_ROLE ( '' ) ;
#142 = CC_DESIGN_APPROVAL ( #155, ( #90 ) ) ;
#143 = DIRECTION ( 'NONE',  ( -3.491481338843133355E-15, 9.031770143711729009E-17, -1.000000000000000000 ) ) ;
#144 = APPROVAL_STATUS ( 'not_yet_approved' ) ;
#145 = APPROVAL_STATUS ( 'not_yet_approved' ) ;
#146 = CARTESIAN_POINT ( 'NONE',  ( 4.441350406430049144E-14, 2.733999999999998209, 12.72053313594866708 ) ) ;
#147 = CLOSED_SHELL ( 'NONE', ( #242, #26, #172, #44 ) ) ;
#148 = PRODUCT_RELATED_PRODUCT_CATEGORY ( 'detail', '', ( #197 ) ) ;
#149 = EDGE_CURVE ( 'NONE', #234, #234, #220, .T. ) ;
#150 = ADVANCED_FACE ( 'NONE', ( #174, #205 ), #86, .T. ) ;
#151 = AXIS2_PLACEMENT_3D ( 'NONE', #81, #117, #187 ) ;
#152 = CARTESIAN_POINT ( 'NONE',  ( 0.0000000000000000000, 0.0000000000000000000, 0.0000000000000000000 ) ) ;
#153 = ORIENTED_EDGE ( 'NONE', *, *, #149, .T. ) ;
#154 = ORIENTED_EDGE ( 'NONE', *, *, #118, .F. ) ;
#155 = APPROVAL ( #144, 'UNSPECIFIED' ) ;
#156 = DIRECTION ( 'NONE',  ( 3.153425691349006731E-31, 1.000000000000000000, 9.031770143711729009E-17 ) ) ;
#157 = AXIS2_PLACEMENT_3D ( 'NONE', #54, #243, #98 ) ;
#158 = CARTESIAN_POINT ( 'NONE',  ( 4.590419531674160152E-30, 6.905801101844373468E-31, 1.314748407962320420E-15 ) ) ;
#159 = PERSON_AND_ORGANIZATION ( #139, #22 ) ;
#160 = DIRECTION ( 'NONE',  ( 3.153425691349006731E-31, 1.000000000000000000, 9.031770143711729009E-17 ) ) ;
#161 = PLANE ( 'NONE',  #47 ) ;
#162 = DATE_TIME_ROLE ( 'creation_date' ) ;
#163 = AXIS2_PLACEMENT_3D ( 'NONE', #84, #143, #137 ) ;
#164 = COORDINATED_UNIVERSAL_TIME_OFFSET ( 1, 0, .AHEAD. ) ;
#165 = PERSON_AND_ORGANIZATION_ROLE ( 'design_supplier' ) ;
#166 = VERTEX_POINT ( 'NONE', #68 ) ;
#167 =( LENGTH_UNIT ( ) NAMED_UNIT ( * ) SI_UNIT ( .MILLI., .METRE. ) );
#168 = AXIS2_PLACEMENT_3D ( 'NONE', #178, #82, #228 ) ;
#169 = AXIS2_PLACEMENT_3D ( 'NONE', #59, #6, #56 ) ;
#170 = EDGE_LOOP ( 'NONE', ( #171 ) ) ;
#171 = ORIENTED_EDGE ( 'NONE', *, *, #29, .F. ) ;
#172 = ADVANCED_FACE ( 'NONE', ( #33, #115 ), #135, .T. ) ;
#173 = CYLINDRICAL_SURFACE ( 'NONE', #74, 2.733999999999994657 ) ;
#174 = FACE_OUTER_BOUND ( 'NONE', #51, .T. ) ;
#175 = CARTESIAN_POINT ( 'NONE',  ( 4.441350406430049775E-14, 6.681542355501354701E-15, 12.72053313594866886 ) ) ;
#176 = CARTESIAN_POINT ( 'NONE',  ( 4.441350406430049144E-14, -1.148889313893569079E-15, 12.72053313594866708 ) ) ;
#177 = PERSON_AND_ORGANIZATION_ROLE ( 'creator' ) ;
#178 = CARTESIAN_POINT ( 'NONE',  ( 2.779219145719134403E-13, -7.189289034394536528E-15, 79.60000000000000853 ) ) ;
#179 = CC_DESIGN_DATE_AND_TIME_ASSIGNMENT ( #1, #138, ( #113 ) ) ;
#180 = DIRECTION ( 'NONE',  ( 3.491481338843133355E-15, 5.252564718863145569E-16, 1.000000000000000000 ) ) ;
#181 = CARTESIAN_POINT ( 'NONE',  ( 4.441350406430048513E-14, 6.681542355501352334E-15, 12.72053313594866530 ) ) ;
#182 = DIRECTION ( 'NONE',  ( -1.833923169697650012E-30, 1.000000000000000000, -5.252564718863146555E-16 ) ) ;
#183 = CIRCLE ( 'NONE', #92, 2.733999999999999542 ) ;
#184 = LOCAL_TIME ( 11, 3, 56.00000000000000000, #125 ) ;
#185 = EDGE_LOOP ( 'NONE', ( #32 ) ) ;
#186 = CIRCLE ( 'NONE', #67, 2.733999999999991548 ) ;
#187 = DIRECTION ( 'NONE',  ( 0.0000000000000000000, 1.000000000000000000, 0.0000000000000000000 ) ) ;
#188 = ADVANCED_FACE ( 'NONE', ( #78, #136 ), #62, .T. ) ;
#189 = CARTESIAN_POINT ( 'NONE',  ( 4.441350406430048513E-14, 2.733999999999998209, 12.72053313594866530 ) ) ;
#190 = CONICAL_SURFACE ( 'NONE', #168, 1.999999999999995337, 0.7853981633974516097 ) ;
#191 = PERSON_AND_ORGANIZATION ( #139, #22 ) ;
#192 = CARTESIAN_POINT ( 'NONE',  ( 0.0000000000000000000, 0.0000000000000000000, 0.0000000000000000000 ) ) ;
#193 = PLANE ( 'NONE',  #121 ) ;
#194 =( NAMED_UNIT ( * ) PLANE_ANGLE_UNIT ( ) SI_UNIT ( $, .RADIAN. ) );
#195 = CC_DESIGN_DATE_AND_TIME_ASSIGNMENT ( #211, #162, ( #52 ) ) ;
#196 = PERSON_AND_ORGANIZATION_ROLE ( 'design_owner' ) ;
#197 = PRODUCT ( '321450', '321450', '', ( #116 ) ) ;
#198 = LOCAL_TIME ( 11, 3, 56.00000000000000000, #120 ) ;
#199 = CARTESIAN_POINT ( 'NONE',  ( 4.441350406430049144E-14, 2.733999999999998209, 12.72053313594866708 ) ) ;
#200 = VERTEX_POINT ( 'NONE', #10 ) ;
#201 = CC_DESIGN_APPROVAL ( #225, ( #113 ) ) ;
#202 = LOCAL_TIME ( 11, 3, 56.00000000000000000, #164 ) ;
#203 = EDGE_LOOP ( 'NONE', ( #130 ) ) ;
#204 = CC_DESIGN_APPROVAL ( #72, ( #52 ) ) ;
#205 = FACE_OUTER_BOUND ( 'NONE', #170, .T. ) ;
#206 = DIRECTION ( 'NONE',  ( 0.0000000000000000000, 1.000000000000000000, 0.0000000000000000000 ) ) ;
#207 = FACE_OUTER_BOUND ( 'NONE', #31, .T. ) ;
#208 = DATE_AND_TIME ( #5, #39 ) ;
#209 = CARTESIAN_POINT ( 'NONE',  ( 2.793185071074506684E-13, -7.225416114969383207E-15, 80.00000000000000000 ) ) ;
#210 = CIRCLE ( 'NONE', #215, 2.503059892324147828 ) ;
#211 = DATE_AND_TIME ( #214, #239 ) ;
#212 = DIRECTION ( 'NONE',  ( 3.491481338843133355E-15, -9.031770143711729009E-17, 1.000000000000000000 ) ) ;
#213 = SECURITY_CLASSIFICATION_LEVEL ( 'unclassified' ) ;
#214 = CALENDAR_DATE ( 2021, 26, 11 ) ;
#215 = AXIS2_PLACEMENT_3D ( 'NONE', #158, #119, #182 ) ;
#216 = CARTESIAN_POINT ( 'NONE',  ( 1.396592535537253145E-15, 2.733999999999997765, 0.3999999999999999667 ) ) ;
#217 = EDGE_CURVE ( 'NONE', #126, #126, #210, .T. ) ;
#218 = EDGE_LOOP ( 'NONE', ( #27 ) ) ;
#219 = ADVANCED_BREP_SHAPE_REPRESENTATION ( '321450', ( #233, #231, #45 ), #236 ) ;
#220 = CIRCLE ( 'NONE', #169, 2.733999999999997765 ) ;
#221 = ORIENTED_EDGE ( 'NONE', *, *, #4, .T. ) ;
#222 = CARTESIAN_POINT ( 'NONE',  ( 0.0000000000000000000, 0.0000000000000000000, 0.0000000000000000000 ) ) ;
#223 = AXIS2_PLACEMENT_3D ( 'NONE', #222, #53, #160 ) ;
#224 = DIRECTION ( 'NONE',  ( -3.491481338843133355E-15, -5.252564718863145569E-16, -1.000000000000000000 ) ) ;
#225 = APPROVAL ( #226, 'UNSPECIFIED' ) ;
#226 = APPROVAL_STATUS ( 'not_yet_approved' ) ;
#227 = CARTESIAN_POINT ( 'NONE',  ( 2.779219145719134403E-13, -7.189289034394536528E-15, 79.60000000000000853 ) ) ;
#228 = DIRECTION ( 'NONE',  ( 0.0000000000000000000, 1.000000000000000000, 0.0000000000000000000 ) ) ;
#229 = PERSON_AND_ORGANIZATION ( #139, #22 ) ;
#230 = CALENDAR_DATE ( 2021, 26, 11 ) ;
#231 = MANIFOLD_SOLID_BREP ( 'Corps-Déplacer/Copier1[2]', #147 ) ;
#232 = CARTESIAN_POINT ( 'NONE',  ( 6.842277657836020854E-46, 2.503059892324147828, 0.0000000000000000000 ) ) ;
#233 = MANIFOLD_SOLID_BREP ( 'Corps-Déplacer/Copier1[1]', #71 ) ;
#234 = VERTEX_POINT ( 'NONE', #216 ) ;
#235 = APPLICATION_CONTEXT ( 'configuration controlled 3d designs of mechanical parts and assemblies' ) ;
#236 =( GEOMETRIC_REPRESENTATION_CONTEXT ( 3 ) GLOBAL_UNCERTAINTY_ASSIGNED_CONTEXT ( ( #114 ) ) GLOBAL_UNIT_ASSIGNED_CONTEXT ( ( #167, #194, #46 ) ) REPRESENTATION_CONTEXT ( 'NONE', 'WORKASPACE' ) );
#237 = DESIGN_CONTEXT ( 'detailed design', #235, 'design' ) ;
#238 = ORIENTED_EDGE ( 'NONE', *, *, #118, .T. ) ;
#239 = LOCAL_TIME ( 11, 3, 56.00000000000000000, #107 ) ;
#240 = EDGE_LOOP ( 'NONE', ( #13 ) ) ;
#241 = DIRECTION ( 'NONE',  ( -3.491481338843133355E-15, -5.252564718863145569E-16, -1.000000000000000000 ) ) ;
#242 = ADVANCED_FACE ( 'NONE', ( #124 ), #24, .T. ) ;
#243 = DIRECTION ( 'NONE',  ( 3.491481338843133355E-15, 5.252564718863145569E-16, 1.000000000000000000 ) ) ;
ENDSEC;
END-ISO-10303-21;
