ISO-10303-21;
HEADER;
FILE_DESCRIPTION (( 'STEP AP203' ),
    '1' );
FILE_NAME ('321449.step',
    '2021-11-26T10:03:56',
    ( '' ),
    ( '' ),
    'SwSTEP 2.0',
    'SolidWorks 2019',
    '' );
FILE_SCHEMA (( 'CONFIG_CONTROL_DESIGN' ));
ENDSEC;

DATA;
#1 = DESIGN_CONTEXT ( 'detailed design', #112, 'design' ) ;
#2 = EDGE_LOOP ( 'NONE', ( #16 ) ) ;
#3 = PRODUCT_DEFINITION_SHAPE ( 'NONE', 'NONE',  #95 ) ;
#4 = AXIS2_PLACEMENT_3D ( 'NONE', #227, #21, #61 ) ;
#5 = APPLICATION_CONTEXT ( 'configuration controlled 3d designs of mechanical parts and assemblies' ) ;
#6 = CARTESIAN_POINT ( 'NONE',  ( 4.885231259955590439E-14, -1.263712492114123682E-15, 13.99185842870425134 ) ) ;
#7 = DIRECTION ( 'NONE',  ( -3.491481338843133355E-15, 9.031770143711729009E-17, -1.000000000000000000 ) ) ;
#8 = DIRECTION ( 'NONE',  ( 1.832093658814211541E-30, -1.000000000000000000, 5.247324791434391467E-16 ) ) ;
#9 = FACE_OUTER_BOUND ( 'NONE', #121, .T. ) ;
#10 = DIRECTION ( 'NONE',  ( -3.491481338843133355E-15, -5.247324791434391467E-16, -1.000000000000000000 ) ) ;
#11 = LOCAL_TIME ( 11, 3, 56.00000000000000000, #205 ) ;
#12 = APPROVAL_STATUS ( 'not_yet_approved' ) ;
#13 = AXIS2_PLACEMENT_3D ( 'NONE', #165, #110, #130 ) ;
#14 = CARTESIAN_POINT ( 'NONE',  ( 4.444374117966326017E-14, 2.728999999999998316, 12.72919338998650929 ) ) ;
#15 = PERSON_AND_ORGANIZATION_ROLE ( 'classification_officer' ) ;
#16 = ORIENTED_EDGE ( 'NONE', *, *, #186, .T. ) ;
#17 = EDGE_LOOP ( 'NONE', ( #188 ) ) ;
#18 = SECURITY_CLASSIFICATION_LEVEL ( 'unclassified' ) ;
#19 = AXIS2_PLACEMENT_3D ( 'NONE', #104, #60, #159 ) ;
#20 = ORIENTED_EDGE ( 'NONE', *, *, #31, .T. ) ;
#21 = DIRECTION ( 'NONE',  ( -3.491481338843133355E-15, -5.247324791434391467E-16, -1.000000000000000000 ) ) ;
#22 = PERSON_AND_ORGANIZATION ( #207, #89 ) ;
#23 = CC_DESIGN_PERSON_AND_ORGANIZATION_ASSIGNMENT ( #78, #150, ( #131 ) ) ;
#24 = CARTESIAN_POINT ( 'NONE',  ( 0.0000000000000000000, 0.0000000000000000000, 0.0000000000000000000 ) ) ;
#25 = CARTESIAN_POINT ( 'NONE',  ( 0.0000000000000000000, 0.0000000000000000000, 0.0000000000000000000 ) ) ;
#26 = DIRECTION ( 'NONE',  ( -3.491481338843133355E-15, -5.247324791434391467E-16, -1.000000000000000000 ) ) ;
#27 = PLANE ( 'NONE',  #38 ) ;
#28 = EDGE_CURVE ( 'NONE', #68, #68, #62, .T. ) ;
#29 = DIRECTION ( 'NONE',  ( 0.0000000000000000000, 1.000000000000000000, 0.0000000000000000000 ) ) ;
#30 = APPLICATION_PROTOCOL_DEFINITION ( 'international standard', 'config_control_design', 1994, #112 ) ;
#31 = EDGE_CURVE ( 'NONE', #212, #212, #219, .T. ) ;
#32 = MECHANICAL_CONTEXT ( 'NONE', #5, 'mechanical' ) ;
#33 = CIRCLE ( 'NONE', #59, 1.999999999999995337 ) ;
#34 = CC_DESIGN_SECURITY_CLASSIFICATION ( #65, ( #206 ) ) ;
#35 = APPROVAL_DATE_TIME ( #203, #223 ) ;
#36 = CALENDAR_DATE ( 2021, 26, 11 ) ;
#37 = EDGE_CURVE ( 'NONE', #155, #155, #140, .T. ) ;
#38 = AXIS2_PLACEMENT_3D ( 'NONE', #145, #210, #128 ) ;
#39 = LOCAL_TIME ( 11, 3, 56.00000000000000000, #137 ) ;
#40 = PERSON_AND_ORGANIZATION_ROLE ( 'creator' ) ;
#41 = ORIENTED_EDGE ( 'NONE', *, *, #129, .T. ) ;
#42 = ADVANCED_FACE ( 'NONE', ( #178, #75 ), #194, .T. ) ;
#43 = APPROVAL_DATE_TIME ( #158, #215 ) ;
#44 = AXIS2_PLACEMENT_3D ( 'NONE', #141, #7, #236 ) ;
#45 = DATE_AND_TIME ( #87, #39 ) ;
#46 = EDGE_LOOP ( 'NONE', ( #191 ) ) ;
#47 = EDGE_LOOP ( 'NONE', ( #190 ) ) ;
#48 = AXIS2_PLACEMENT_3D ( 'NONE', #148, #196, #8 ) ;
#49 = DIRECTION ( 'NONE',  ( 0.0000000000000000000, 1.000000000000000000, 0.0000000000000000000 ) ) ;
#50 = DIRECTION ( 'NONE',  ( 0.0000000000000000000, 1.000000000000000000, 0.0000000000000000000 ) ) ;
#51 = FACE_OUTER_BOUND ( 'NONE', #120, .T. ) ;
#52 = CC_DESIGN_PERSON_AND_ORGANIZATION_ASSIGNMENT ( #226, #107, ( #206 ) ) ;
#53 = FACE_OUTER_BOUND ( 'NONE', #172, .T. ) ;
#54 =( NAMED_UNIT ( * ) SI_UNIT ( $, .STERADIAN. ) SOLID_ANGLE_UNIT ( ) );
#55 = PERSON_AND_ORGANIZATION ( #207, #89 ) ;
#56 = APPROVAL_ROLE ( '' ) ;
#57 = AXIS2_PLACEMENT_3D ( 'NONE', #93, #195, #144 ) ;
#58 = PERSON_AND_ORGANIZATION ( #207, #89 ) ;
#59 = AXIS2_PLACEMENT_3D ( 'NONE', #94, #124, #49 ) ;
#60 = DIRECTION ( 'NONE',  ( -3.491481338843133355E-15, 9.031770143711729009E-17, -1.000000000000000000 ) ) ;
#61 = DIRECTION ( 'NONE',  ( -2.258327527313731587E-30, 1.000000000000000000, -6.356626881556659502E-16 ) ) ;
#62 = CIRCLE ( 'NONE', #19, 1.599999999999994982 ) ;
#63 = SHAPE_DEFINITION_REPRESENTATION ( #3, #70 ) ;
#64 = AXIS2_PLACEMENT_3D ( 'NONE', #193, #182, #29 ) ;
#65 = SECURITY_CLASSIFICATION ( '', '', #18 ) ;
#66 = CC_DESIGN_DATE_AND_TIME_ASSIGNMENT ( #45, #123, ( #65 ) ) ;
#67 = EDGE_LOOP ( 'NONE', ( #209 ) ) ;
#68 = VERTEX_POINT ( 'NONE', #111 ) ;
#69 = MANIFOLD_SOLID_BREP ( 'Corps-Déplacer/Copier1[2]', #240 ) ;
#70 = ADVANCED_BREP_SHAPE_REPRESENTATION ( '321449', ( #229, #69, #76 ), #98 ) ;
#71 = AXIS2_PLACEMENT_3D ( 'NONE', #24, #10, #115 ) ;
#72 = DIRECTION ( 'NONE',  ( -3.491481338843133355E-15, 9.031770143711729009E-17, -1.000000000000000000 ) ) ;
#73 = FACE_OUTER_BOUND ( 'NONE', #192, .T. ) ;
#74 = DIRECTION ( 'NONE',  ( 3.491481338843133355E-15, 5.247324791434391467E-16, 1.000000000000000000 ) ) ;
#75 = FACE_OUTER_BOUND ( 'NONE', #67, .T. ) ;
#76 = AXIS2_PLACEMENT_3D ( 'NONE', #83, #79, #200 ) ;
#77 = ADVANCED_FACE ( 'NONE', ( #164, #51 ), #114, .T. ) ;
#78 = PERSON_AND_ORGANIZATION ( #207, #89 ) ;
#79 = DIRECTION ( 'NONE',  ( 0.0000000000000000000, 0.0000000000000000000, 1.000000000000000000 ) ) ;
#80 = CARTESIAN_POINT ( 'NONE',  ( 0.0000000000000000000, 2.498059892324147935, 0.0000000000000000000 ) ) ;
#81 = AXIS2_PLACEMENT_3D ( 'NONE', #162, #26, #235 ) ;
#82 =( LENGTH_UNIT ( ) NAMED_UNIT ( * ) SI_UNIT ( .MILLI., .METRE. ) );
#83 = CARTESIAN_POINT ( 'NONE',  ( 0.0000000000000000000, 0.0000000000000000000, 0.0000000000000000000 ) ) ;
#84 = ORIENTED_EDGE ( 'NONE', *, *, #88, .T. ) ;
#85 = CONICAL_SURFACE ( 'NONE', #170, 2.498059892324147935, 0.5235987755982978165 ) ;
#86 = EDGE_LOOP ( 'NONE', ( #41 ) ) ;
#87 = CALENDAR_DATE ( 2021, 26, 11 ) ;
#88 = EDGE_CURVE ( 'NONE', #221, #221, #152, .T. ) ;
#89 = ORGANIZATION ( 'UNSPECIFIED', 'UNSPECIFIED', '' ) ;
#90 = PLANE ( 'NONE',  #48 ) ;
#91 = FACE_BOUND ( 'NONE', #122, .T. ) ;
#92 = CC_DESIGN_PERSON_AND_ORGANIZATION_ASSIGNMENT ( #58, #40, ( #206 ) ) ;
#93 = CARTESIAN_POINT ( 'NONE',  ( 4.444374117966326017E-14, -1.149671488132128375E-15, 12.72919338998650929 ) ) ;
#94 = CARTESIAN_POINT ( 'NONE',  ( 2.779219145719134403E-13, -7.189289034394536528E-15, 79.60000000000000853 ) ) ;
#95 = PRODUCT_DEFINITION ( 'UNKNOWN', '', #206, #1 ) ;
#96 = DIRECTION ( 'NONE',  ( -3.491481338843133355E-15, 9.031770143711729009E-17, -1.000000000000000000 ) ) ;
#97 = COORDINATED_UNIVERSAL_TIME_OFFSET ( 1, 0, .AHEAD. ) ;
#98 =( GEOMETRIC_REPRESENTATION_CONTEXT ( 3 ) GLOBAL_UNCERTAINTY_ASSIGNED_CONTEXT ( ( #106 ) ) GLOBAL_UNIT_ASSIGNED_CONTEXT ( ( #82, #241, #54 ) ) REPRESENTATION_CONTEXT ( 'NONE', 'WORKASPACE' ) );
#99 = VERTEX_POINT ( 'NONE', #187 ) ;
#100 = DATE_TIME_ROLE ( 'creation_date' ) ;
#101 = ADVANCED_FACE ( 'NONE', ( #9 ), #90, .T. ) ;
#102 = AXIS2_PLACEMENT_3D ( 'NONE', #177, #230, #161 ) ;
#103 = CC_DESIGN_DATE_AND_TIME_ASSIGNMENT ( #239, #100, ( #95 ) ) ;
#104 = CARTESIAN_POINT ( 'NONE',  ( 2.793185071074506684E-13, -7.225416114969383207E-15, 80.00000000000000000 ) ) ;
#105 = CC_DESIGN_APPROVAL ( #234, ( #95 ) ) ;
#106 = UNCERTAINTY_MEASURE_WITH_UNIT (LENGTH_MEASURE( 1.000000000000000082E-05 ), #82, 'distance_accuracy_value', 'NONE');
#107 = PERSON_AND_ORGANIZATION_ROLE ( 'design_supplier' ) ;
#108 = CARTESIAN_POINT ( 'NONE',  ( 4.444374117966326017E-14, -1.149671488132128375E-15, 12.72919338998650929 ) ) ;
#109 = EDGE_LOOP ( 'NONE', ( #138 ) ) ;
#110 = DIRECTION ( 'NONE',  ( -3.491481338843133355E-15, -5.247324791434391467E-16, -1.000000000000000000 ) ) ;
#111 = CARTESIAN_POINT ( 'NONE',  ( 2.793185071074506684E-13, 1.599999999999987876, 80.00000000000000000 ) ) ;
#112 = APPLICATION_CONTEXT ( 'configuration controlled 3d designs of mechanical parts and assemblies' ) ;
#113 = FACE_OUTER_BOUND ( 'NONE', #47, .T. ) ;
#114 = CYLINDRICAL_SURFACE ( 'NONE', #157, 1.999999999999993561 ) ;
#115 = DIRECTION ( 'NONE',  ( -1.832093658814211891E-30, 1.000000000000000000, -5.247324791434391467E-16 ) ) ;
#116 = PERSON_AND_ORGANIZATION ( #207, #89 ) ;
#117 = ADVANCED_FACE ( 'NONE', ( #166 ), #233, .T. ) ;
#118 = APPROVAL_ROLE ( '' ) ;
#119 = PERSON_AND_ORGANIZATION ( #207, #89 ) ;
#120 = EDGE_LOOP ( 'NONE', ( #174 ) ) ;
#121 = EDGE_LOOP ( 'NONE', ( #228 ) ) ;
#122 = EDGE_LOOP ( 'NONE', ( #243 ) ) ;
#123 = DATE_TIME_ROLE ( 'classification_date' ) ;
#124 = DIRECTION ( 'NONE',  ( -3.491481338843133355E-15, 9.031770143711729009E-17, -1.000000000000000000 ) ) ;
#125 = LOCAL_TIME ( 11, 3, 56.00000000000000000, #168 ) ;
#126 = PLANE ( 'NONE',  #102 ) ;
#127 = FACE_OUTER_BOUND ( 'NONE', #17, .T. ) ;
#128 = DIRECTION ( 'NONE',  ( -1.832093658814211541E-30, 1.000000000000000000, -5.247324791434391467E-16 ) ) ;
#129 = EDGE_CURVE ( 'NONE', #222, #222, #147, .T. ) ;
#130 = DIRECTION ( 'NONE',  ( -1.832093658814211891E-30, 1.000000000000000000, -5.247324791434391467E-16 ) ) ;
#131 = PRODUCT ( '321449', '321449', '', ( #32 ) ) ;
#132 = PERSON_AND_ORGANIZATION_ROLE ( 'creator' ) ;
#133 = ADVANCED_FACE ( 'NONE', ( #73 ), #27, .T. ) ;
#134 = APPROVAL_ROLE ( '' ) ;
#135 = AXIS2_PLACEMENT_3D ( 'NONE', #108, #72, #50 ) ;
#136 = CARTESIAN_POINT ( 'NONE',  ( 4.444374117966326017E-14, 2.728999999999998316, 12.72919338998650929 ) ) ;
#137 = COORDINATED_UNIVERSAL_TIME_OFFSET ( 1, 0, .AHEAD. ) ;
#138 = ORIENTED_EDGE ( 'NONE', *, *, #180, .T. ) ;
#139 = ADVANCED_FACE ( 'NONE', ( #214, #91 ), #85, .T. ) ;
#140 = CIRCLE ( 'NONE', #135, 2.728999999999999648 ) ;
#141 = CARTESIAN_POINT ( 'NONE',  ( 4.444374117966326648E-14, 2.728999999999998316, 12.72919338998651106 ) ) ;
#142 = CONICAL_SURFACE ( 'NONE', #64, 1.999999999999995337, 0.7853981633974516097 ) ;
#143 = DIRECTION ( 'NONE',  ( 1.832093658814211891E-30, -1.000000000000000000, 5.247324791434391467E-16 ) ) ;
#144 = DIRECTION ( 'NONE',  ( 0.0000000000000000000, 1.000000000000000000, 0.0000000000000000000 ) ) ;
#145 = CARTESIAN_POINT ( 'NONE',  ( -2.288339844032591980E-30, 2.498059892324147935, -6.554065801740213932E-16 ) ) ;
#146 = ADVANCED_FACE ( 'NONE', ( #53, #231 ), #199, .T. ) ;
#147 = CIRCLE ( 'NONE', #81, 2.728999999999997872 ) ;
#148 = CARTESIAN_POINT ( 'NONE',  ( 4.444374117966326648E-14, 6.679421205023899879E-15, 12.72919338998651106 ) ) ;
#149 = APPLICATION_PROTOCOL_DEFINITION ( 'international standard', 'config_control_design', 1994, #5 ) ;
#150 = PERSON_AND_ORGANIZATION_ROLE ( 'design_owner' ) ;
#151 = CALENDAR_DATE ( 2021, 26, 11 ) ;
#152 = CIRCLE ( 'NONE', #13, 2.498059892324147935 ) ;
#153 = CARTESIAN_POINT ( 'NONE',  ( 4.885231259955590439E-14, 1.999999999999990452, 13.99185842870425134 ) ) ;
#154 = PRODUCT_RELATED_PRODUCT_CATEGORY ( 'detail', '', ( #131 ) ) ;
#155 = VERTEX_POINT ( 'NONE', #14 ) ;
#156 = EDGE_LOOP ( 'NONE', ( #171 ) ) ;
#157 = AXIS2_PLACEMENT_3D ( 'NONE', #25, #181, #213 ) ;
#158 = DATE_AND_TIME ( #189, #11 ) ;
#159 = DIRECTION ( 'NONE',  ( 0.0000000000000000000, 1.000000000000000000, 0.0000000000000000000 ) ) ;
#160 = APPROVAL_STATUS ( 'not_yet_approved' ) ;
#161 = DIRECTION ( 'NONE',  ( -3.153425691349006731E-31, -1.000000000000000000, -9.031770143711729009E-17 ) ) ;
#162 = CARTESIAN_POINT ( 'NONE',  ( 1.396592535537258075E-15, 2.098929916573763736E-16, 0.4000000000000013545 ) ) ;
#163 = CC_DESIGN_APPROVAL ( #223, ( #206 ) ) ;
#164 = FACE_OUTER_BOUND ( 'NONE', #2, .T. ) ;
#165 = CARTESIAN_POINT ( 'NONE',  ( 4.576679688065183960E-30, 6.878262393232749189E-31, 1.310813160348042786E-15 ) ) ;
#166 = FACE_OUTER_BOUND ( 'NONE', #46, .T. ) ;
#167 = APPROVAL_PERSON_ORGANIZATION ( #119, #215, #118 ) ;
#168 = COORDINATED_UNIVERSAL_TIME_OFFSET ( 1, 0, .AHEAD. ) ;
#169 = CIRCLE ( 'NONE', #198, 1.999999999999991784 ) ;
#170 = AXIS2_PLACEMENT_3D ( 'NONE', #217, #74, #143 ) ;
#171 = ORIENTED_EDGE ( 'NONE', *, *, #28, .T. ) ;
#172 = EDGE_LOOP ( 'NONE', ( #20 ) ) ;
#173 = ADVANCED_FACE ( 'NONE', ( #197, #113 ), #142, .T. ) ;
#174 = ORIENTED_EDGE ( 'NONE', *, *, #180, .F. ) ;
#175 = CC_DESIGN_PERSON_AND_ORGANIZATION_ASSIGNMENT ( #55, #132, ( #95 ) ) ;
#176 = LOCAL_TIME ( 11, 3, 56.00000000000000000, #201 ) ;
#177 = CARTESIAN_POINT ( 'NONE',  ( 2.793185071074506684E-13, -7.225416114969383207E-15, 80.00000000000000000 ) ) ;
#178 = FACE_BOUND ( 'NONE', #109, .T. ) ;
#179 = DIRECTION ( 'NONE',  ( 0.0000000000000000000, 1.000000000000000000, 0.0000000000000000000 ) ) ;
#180 = EDGE_CURVE ( 'NONE', #185, #185, #169, .T. ) ;
#181 = DIRECTION ( 'NONE',  ( -3.491481338843133355E-15, 9.031770143711729009E-17, -1.000000000000000000 ) ) ;
#182 = DIRECTION ( 'NONE',  ( -3.491481338843133355E-15, 9.031770143711729009E-17, -1.000000000000000000 ) ) ;
#183 = APPROVAL_STATUS ( 'not_yet_approved' ) ;
#184 = PERSON_AND_ORGANIZATION ( #207, #89 ) ;
#185 = VERTEX_POINT ( 'NONE', #153 ) ;
#186 = EDGE_CURVE ( 'NONE', #99, #99, #33, .T. ) ;
#187 = CARTESIAN_POINT ( 'NONE',  ( 2.779219145719134403E-13, 1.999999999999988010, 79.60000000000000853 ) ) ;
#188 = ORIENTED_EDGE ( 'NONE', *, *, #28, .F. ) ;
#189 = CALENDAR_DATE ( 2021, 26, 11 ) ;
#190 = ORIENTED_EDGE ( 'NONE', *, *, #186, .F. ) ;
#191 = ORIENTED_EDGE ( 'NONE', *, *, #37, .T. ) ;
#192 = EDGE_LOOP ( 'NONE', ( #84 ) ) ;
#193 = CARTESIAN_POINT ( 'NONE',  ( 2.779219145719134403E-13, -7.189289034394536528E-15, 79.60000000000000853 ) ) ;
#194 = CONICAL_SURFACE ( 'NONE', #57, 2.728999999999999648, 0.5235987755982930425 ) ;
#195 = DIRECTION ( 'NONE',  ( -3.491481338843133355E-15, 9.031770143711729009E-17, -1.000000000000000000 ) ) ;
#196 = DIRECTION ( 'NONE',  ( 3.491481338843133355E-15, 5.247324791434391467E-16, 1.000000000000000000 ) ) ;
#197 = FACE_BOUND ( 'NONE', #156, .T. ) ;
#198 = AXIS2_PLACEMENT_3D ( 'NONE', #6, #96, #179 ) ;
#199 = CYLINDRICAL_SURFACE ( 'NONE', #71, 2.728999999999994763 ) ;
#200 = DIRECTION ( 'NONE',  ( 1.000000000000000000, 0.0000000000000000000, 0.0000000000000000000 ) ) ;
#201 = COORDINATED_UNIVERSAL_TIME_OFFSET ( 1, 0, .AHEAD. ) ;
#202 = APPROVAL_PERSON_ORGANIZATION ( #116, #234, #56 ) ;
#203 = DATE_AND_TIME ( #151, #125 ) ;
#204 = APPROVAL_DATE_TIME ( #218, #234 ) ;
#205 = COORDINATED_UNIVERSAL_TIME_OFFSET ( 1, 0, .AHEAD. ) ;
#206 = PRODUCT_DEFINITION_FORMATION_WITH_SPECIFIED_SOURCE ( 'ANY', '', #131, .NOT_KNOWN. ) ;
#207 = PERSON ( 'UNSPECIFIED', 'UNSPECIFIED', 'UNSPECIFIED', ('UNSPECIFIED'), ('UNSPECIFIED'), ('UNSPECIFIED') ) ;
#208 = ORIENTED_EDGE ( 'NONE', *, *, #129, .F. ) ;
#209 = ORIENTED_EDGE ( 'NONE', *, *, #37, .F. ) ;
#210 = DIRECTION ( 'NONE',  ( -3.491481338843133355E-15, -5.247324791434391467E-16, -1.000000000000000000 ) ) ;
#211 = CC_DESIGN_APPROVAL ( #215, ( #65 ) ) ;
#212 = VERTEX_POINT ( 'NONE', #136 ) ;
#213 = DIRECTION ( 'NONE',  ( 3.153425691349006731E-31, 1.000000000000000000, 9.031770143711729009E-17 ) ) ;
#214 = FACE_OUTER_BOUND ( 'NONE', #86, .T. ) ;
#215 = APPROVAL ( #160, 'UNSPECIFIED' ) ;
#216 = LOCAL_TIME ( 11, 3, 56.00000000000000000, #97 ) ;
#217 = CARTESIAN_POINT ( 'NONE',  ( 4.576679688065183960E-30, 6.878262393232749189E-31, 1.310813160348042786E-15 ) ) ;
#218 = DATE_AND_TIME ( #237, #216 ) ;
#219 = CIRCLE ( 'NONE', #4, 2.728999999999991655 ) ;
#220 = CC_DESIGN_PERSON_AND_ORGANIZATION_ASSIGNMENT ( #22, #15, ( #65 ) ) ;
#221 = VERTEX_POINT ( 'NONE', #80 ) ;
#222 = VERTEX_POINT ( 'NONE', #238 ) ;
#223 = APPROVAL ( #12, 'UNSPECIFIED' ) ;
#224 = APPROVAL_PERSON_ORGANIZATION ( #184, #223, #134 ) ;
#225 = EDGE_LOOP ( 'NONE', ( #208 ) ) ;
#226 = PERSON_AND_ORGANIZATION ( #207, #89 ) ;
#227 = CARTESIAN_POINT ( 'NONE',  ( 4.444374117966326648E-14, 6.679421205023900668E-15, 12.72919338998651106 ) ) ;
#228 = ORIENTED_EDGE ( 'NONE', *, *, #31, .F. ) ;
#229 = MANIFOLD_SOLID_BREP ( 'Corps-Déplacer/Copier1[1]', #232 ) ;
#230 = DIRECTION ( 'NONE',  ( 3.491481338843133355E-15, -9.031770143711729009E-17, 1.000000000000000000 ) ) ;
#231 = FACE_OUTER_BOUND ( 'NONE', #225, .T. ) ;
#232 = CLOSED_SHELL ( 'NONE', ( #242, #173, #77, #42, #117 ) ) ;
#233 = PLANE ( 'NONE',  #44 ) ;
#234 = APPROVAL ( #183, 'UNSPECIFIED' ) ;
#235 = DIRECTION ( 'NONE',  ( -1.834891115942402929E-30, 1.000000000000000000, -5.164759341264774628E-16 ) ) ;
#236 = DIRECTION ( 'NONE',  ( 3.153425691349006731E-31, 1.000000000000000000, 9.031770143711729009E-17 ) ) ;
#237 = CALENDAR_DATE ( 2021, 26, 11 ) ;
#238 = CARTESIAN_POINT ( 'NONE',  ( 1.396592535537253145E-15, 2.728999999999997872, 0.3999999999999999667 ) ) ;
#239 = DATE_AND_TIME ( #36, #176 ) ;
#240 = CLOSED_SHELL ( 'NONE', ( #101, #146, #139, #133 ) ) ;
#241 =( NAMED_UNIT ( * ) PLANE_ANGLE_UNIT ( ) SI_UNIT ( $, .RADIAN. ) );
#242 = ADVANCED_FACE ( 'NONE', ( #127 ), #126, .T. ) ;
#243 = ORIENTED_EDGE ( 'NONE', *, *, #88, .F. ) ;
ENDSEC;
END-ISO-10303-21;
