ISO-10303-21;
HEADER;
FILE_DESCRIPTION (( 'STEP AP203' ),
    '1' );
FILE_NAME ('321448.step',
    '2021-11-26T10:03:55',
    ( '' ),
    ( '' ),
    'SwSTEP 2.0',
    'SolidWorks 2019',
    '' );
FILE_SCHEMA (( 'CONFIG_CONTROL_DESIGN' ));
ENDSEC;

DATA;
#1 = PERSON_AND_ORGANIZATION ( #134, #78 ) ;
#2 = EDGE_LOOP ( 'NONE', ( #65 ) ) ;
#3 = AXIS2_PLACEMENT_3D ( 'NONE', #120, #140, #212 ) ;
#4 = FACE_OUTER_BOUND ( 'NONE', #40, .T. ) ;
#5 = PRODUCT ( '321448', '321448', '', ( #218 ) ) ;
#6 = DIRECTION ( 'NONE',  ( -1.830266635638586959E-30, 1.000000000000000000, -5.242091989084000538E-16 ) ) ;
#7 = DIRECTION ( 'NONE',  ( 3.491481338843133355E-15, 5.242091989084000538E-16, 1.000000000000000000 ) ) ;
#8 = PLANE ( 'NONE',  #37 ) ;
#9 = CC_DESIGN_PERSON_AND_ORGANIZATION_ASSIGNMENT ( #98, #100, ( #216 ) ) ;
#10 = DIRECTION ( 'NONE',  ( 3.491481338843133355E-15, 5.242091989084000538E-16, 1.000000000000000000 ) ) ;
#11 = CARTESIAN_POINT ( 'NONE',  ( 4.885231259955590439E-14, 1.999999999999990452, 13.99185842870425134 ) ) ;
#12 = PERSON_AND_ORGANIZATION ( #134, #78 ) ;
#13 = PERSON_AND_ORGANIZATION ( #134, #78 ) ;
#14 = ORIENTED_EDGE ( 'NONE', *, *, #133, .F. ) ;
#15 = PERSON_AND_ORGANIZATION ( #134, #78 ) ;
#16 = EDGE_LOOP ( 'NONE', ( #63 ) ) ;
#17 = PERSON_AND_ORGANIZATION_ROLE ( 'creator' ) ;
#18 = PRODUCT_DEFINITION_FORMATION_WITH_SPECIFIED_SOURCE ( 'ANY', '', #5, .NOT_KNOWN. ) ;
#19 = EDGE_CURVE ( 'NONE', #147, #147, #168, .T. ) ;
#20 = DATE_AND_TIME ( #112, #91 ) ;
#21 = CC_DESIGN_PERSON_AND_ORGANIZATION_ASSIGNMENT ( #75, #186, ( #5 ) ) ;
#22 = FACE_OUTER_BOUND ( 'NONE', #236, .T. ) ;
#23 = DIRECTION ( 'NONE',  ( 3.491481338843133355E-15, -9.031770143711729009E-17, 1.000000000000000000 ) ) ;
#24 = ORIENTED_EDGE ( 'NONE', *, *, #195, .F. ) ;
#25 = EDGE_LOOP ( 'NONE', ( #104 ) ) ;
#26 = APPROVAL ( #89, 'UNSPECIFIED' ) ;
#27 = PLANE ( 'NONE',  #87 ) ;
#28 = DIRECTION ( 'NONE',  ( -3.491481338843133355E-15, 9.031770143711729009E-17, -1.000000000000000000 ) ) ;
#29 = CARTESIAN_POINT ( 'NONE',  ( 4.447397829502603521E-14, 2.723999999999998423, 12.73785364402435327 ) ) ;
#30 = AXIS2_PLACEMENT_3D ( 'NONE', #127, #170, #221 ) ;
#31 = CARTESIAN_POINT ( 'NONE',  ( 0.0000000000000000000, 0.0000000000000000000, 0.0000000000000000000 ) ) ;
#32 = CARTESIAN_POINT ( 'NONE',  ( 2.779219145719134403E-13, 1.999999999999988010, 79.60000000000000853 ) ) ;
#33 = FACE_OUTER_BOUND ( 'NONE', #210, .T. ) ;
#34 = AXIS2_PLACEMENT_3D ( 'NONE', #187, #201, #53 ) ;
#35 = APPROVAL ( #116, 'UNSPECIFIED' ) ;
#36 = DATE_AND_TIME ( #207, #234 ) ;
#37 = AXIS2_PLACEMENT_3D ( 'NONE', #159, #118, #66 ) ;
#38 = ORIENTED_EDGE ( 'NONE', *, *, #19, .T. ) ;
#39 = DATE_AND_TIME ( #125, #62 ) ;
#40 = EDGE_LOOP ( 'NONE', ( #99 ) ) ;
#41 = ADVANCED_FACE ( 'NONE', ( #123, #101 ), #47, .T. ) ;
#42 = EDGE_LOOP ( 'NONE', ( #60 ) ) ;
#43 = CYLINDRICAL_SURFACE ( 'NONE', #3, 1.999999999999993561 ) ;
#44 = CARTESIAN_POINT ( 'NONE',  ( 2.793185071074506684E-13, -7.225416114969383207E-15, 80.00000000000000000 ) ) ;
#45 = DIRECTION ( 'NONE',  ( 0.0000000000000000000, 1.000000000000000000, 0.0000000000000000000 ) ) ;
#46 = FACE_OUTER_BOUND ( 'NONE', #95, .T. ) ;
#47 = CONICAL_SURFACE ( 'NONE', #69, 2.493059892324148485, 0.5235987755982978165 ) ;
#48 = LOCAL_TIME ( 11, 3, 55.00000000000000000, #56 ) ;
#49 = APPLICATION_PROTOCOL_DEFINITION ( 'international standard', 'config_control_design', 1994, #124 ) ;
#50 = PRODUCT_DEFINITION ( 'UNKNOWN', '', #18, #206 ) ;
#51 = APPROVAL_PERSON_ORGANIZATION ( #13, #182, #114 ) ;
#52 = FACE_OUTER_BOUND ( 'NONE', #172, .T. ) ;
#53 = DIRECTION ( 'NONE',  ( 0.0000000000000000000, 1.000000000000000000, 0.0000000000000000000 ) ) ;
#54 = PERSON_AND_ORGANIZATION ( #134, #78 ) ;
#55 = PRODUCT_DEFINITION_SHAPE ( 'NONE', 'NONE',  #50 ) ;
#56 = COORDINATED_UNIVERSAL_TIME_OFFSET ( 1, 0, .AHEAD. ) ;
#57 = PERSON_AND_ORGANIZATION_ROLE ( 'design_supplier' ) ;
#58 = AXIS2_PLACEMENT_3D ( 'NONE', #92, #28, #110 ) ;
#59 = AXIS2_PLACEMENT_3D ( 'NONE', #193, #82, #194 ) ;
#60 = ORIENTED_EDGE ( 'NONE', *, *, #64, .F. ) ;
#61 = ORIENTED_EDGE ( 'NONE', *, *, #223, .F. ) ;
#62 = LOCAL_TIME ( 11, 3, 55.00000000000000000, #74 ) ;
#63 = ORIENTED_EDGE ( 'NONE', *, *, #19, .F. ) ;
#64 = EDGE_CURVE ( 'NONE', #126, #126, #146, .T. ) ;
#65 = ORIENTED_EDGE ( 'NONE', *, *, #68, .T. ) ;
#66 = DIRECTION ( 'NONE',  ( 3.153425691349006731E-31, 1.000000000000000000, 9.031770143711729009E-17 ) ) ;
#67 = FACE_BOUND ( 'NONE', #190, .T. ) ;
#68 = EDGE_CURVE ( 'NONE', #166, #166, #149, .T. ) ;
#69 = AXIS2_PLACEMENT_3D ( 'NONE', #230, #7, #122 ) ;
#70 = CC_DESIGN_APPROVAL ( #182, ( #18 ) ) ;
#71 =( NAMED_UNIT ( * ) PLANE_ANGLE_UNIT ( ) SI_UNIT ( $, .RADIAN. ) );
#72 = CIRCLE ( 'NONE', #208, 1.999999999999991784 ) ;
#73 = ADVANCED_FACE ( 'NONE', ( #160 ), #196, .T. ) ;
#74 = COORDINATED_UNIVERSAL_TIME_OFFSET ( 1, 0, .AHEAD. ) ;
#75 = PERSON_AND_ORGANIZATION ( #134, #78 ) ;
#76 = APPROVAL_STATUS ( 'not_yet_approved' ) ;
#77 = CC_DESIGN_PERSON_AND_ORGANIZATION_ASSIGNMENT ( #1, #57, ( #18 ) ) ;
#78 = ORGANIZATION ( 'UNSPECIFIED', 'UNSPECIFIED', '' ) ;
#79 = EDGE_LOOP ( 'NONE', ( #38 ) ) ;
#80 = AXIS2_PLACEMENT_3D ( 'NONE', #178, #86, #6 ) ;
#81 = DIRECTION ( 'NONE',  ( -1.838259124598684800E-30, 1.000000000000000000, -5.174239442845656902E-16 ) ) ;
#82 = DIRECTION ( 'NONE',  ( -3.491481338843133355E-15, -5.242091989084000538E-16, -1.000000000000000000 ) ) ;
#83 = ADVANCED_FACE ( 'NONE', ( #107 ), #8, .T. ) ;
#84 = CARTESIAN_POINT ( 'NONE',  ( 4.447397829502603521E-14, -1.150453662370688066E-15, 12.73785364402435327 ) ) ;
#85 = DIRECTION ( 'NONE',  ( 0.0000000000000000000, 1.000000000000000000, 0.0000000000000000000 ) ) ;
#86 = DIRECTION ( 'NONE',  ( -3.491481338843133355E-15, -5.242091989084000538E-16, -1.000000000000000000 ) ) ;
#87 = AXIS2_PLACEMENT_3D ( 'NONE', #181, #10, #162 ) ;
#88 = CARTESIAN_POINT ( 'NONE',  ( 6.842277657836020854E-46, 2.493059892324148485, 0.0000000000000000000 ) ) ;
#89 = APPROVAL_STATUS ( 'not_yet_approved' ) ;
#90 = CIRCLE ( 'NONE', #58, 1.999999999999995337 ) ;
#91 = LOCAL_TIME ( 11, 3, 55.00000000000000000, #154 ) ;
#92 = CARTESIAN_POINT ( 'NONE',  ( 2.779219145719134403E-13, -7.189289034394536528E-15, 79.60000000000000853 ) ) ;
#93 = EDGE_CURVE ( 'NONE', #128, #128, #179, .T. ) ;
#94 = APPROVAL_DATE_TIME ( #20, #182 ) ;
#95 = EDGE_LOOP ( 'NONE', ( #229 ) ) ;
#96 = CONICAL_SURFACE ( 'NONE', #240, 2.723999999999999755, 0.5235987755982928205 ) ;
#97 = UNCERTAINTY_MEASURE_WITH_UNIT (LENGTH_MEASURE( 1.000000000000000082E-05 ), #145, 'distance_accuracy_value', 'NONE');
#98 = PERSON_AND_ORGANIZATION ( #134, #78 ) ;
#99 = ORIENTED_EDGE ( 'NONE', *, *, #93, .F. ) ;
#100 = PERSON_AND_ORGANIZATION_ROLE ( 'classification_officer' ) ;
#101 = FACE_BOUND ( 'NONE', #16, .T. ) ;
#102 = CC_DESIGN_PERSON_AND_ORGANIZATION_ASSIGNMENT ( #155, #17, ( #50 ) ) ;
#103 = CARTESIAN_POINT ( 'NONE',  ( 4.885231259955590439E-14, -1.263712492114123682E-15, 13.99185842870425134 ) ) ;
#104 = ORIENTED_EDGE ( 'NONE', *, *, #223, .T. ) ;
#105 = DIRECTION ( 'NONE',  ( -3.491481338843133355E-15, -5.242091989084000538E-16, -1.000000000000000000 ) ) ;
#106 = LOCAL_TIME ( 11, 3, 55.00000000000000000, #130 ) ;
#107 = FACE_OUTER_BOUND ( 'NONE', #117, .T. ) ;
#108 = CARTESIAN_POINT ( 'NONE',  ( 2.793185071074506684E-13, 1.599999999999987876, 80.00000000000000000 ) ) ;
#109 = VERTEX_POINT ( 'NONE', #32 ) ;
#110 = DIRECTION ( 'NONE',  ( 0.0000000000000000000, 1.000000000000000000, 0.0000000000000000000 ) ) ;
#111 = CC_DESIGN_APPROVAL ( #35, ( #216 ) ) ;
#112 = CALENDAR_DATE ( 2021, 26, 11 ) ;
#113 = CLOSED_SHELL ( 'NONE', ( #175, #204, #41, #73 ) ) ;
#114 = APPROVAL_ROLE ( '' ) ;
#115 = ORIENTED_EDGE ( 'NONE', *, *, #195, .T. ) ;
#116 = APPROVAL_STATUS ( 'not_yet_approved' ) ;
#117 = EDGE_LOOP ( 'NONE', ( #136 ) ) ;
#118 = DIRECTION ( 'NONE',  ( -3.491481338843133355E-15, 9.031770143711729009E-17, -1.000000000000000000 ) ) ;
#119 = ADVANCED_FACE ( 'NONE', ( #139, #22 ), #43, .T. ) ;
#120 = CARTESIAN_POINT ( 'NONE',  ( 0.0000000000000000000, 0.0000000000000000000, 0.0000000000000000000 ) ) ;
#121 = DIRECTION ( 'NONE',  ( 0.0000000000000000000, 1.000000000000000000, 0.0000000000000000000 ) ) ;
#122 = DIRECTION ( 'NONE',  ( 1.830266635638586609E-30, -1.000000000000000000, 5.242091989084000538E-16 ) ) ;
#123 = FACE_OUTER_BOUND ( 'NONE', #161, .T. ) ;
#124 = APPLICATION_CONTEXT ( 'configuration controlled 3d designs of mechanical parts and assemblies' ) ;
#125 = CALENDAR_DATE ( 2021, 26, 11 ) ;
#126 = VERTEX_POINT ( 'NONE', #29 ) ;
#127 = CARTESIAN_POINT ( 'NONE',  ( 0.0000000000000000000, 0.0000000000000000000, 0.0000000000000000000 ) ) ;
#128 = VERTEX_POINT ( 'NONE', #148 ) ;
#129 = ADVANCED_FACE ( 'NONE', ( #46 ), #235, .T. ) ;
#130 = COORDINATED_UNIVERSAL_TIME_OFFSET ( 1, 0, .AHEAD. ) ;
#131 = APPLICATION_CONTEXT ( 'configuration controlled 3d designs of mechanical parts and assemblies' ) ;
#132 = DATE_AND_TIME ( #226, #48 ) ;
#133 = EDGE_CURVE ( 'NONE', #183, #183, #72, .T. ) ;
#134 = PERSON ( 'UNSPECIFIED', 'UNSPECIFIED', 'UNSPECIFIED', ('UNSPECIFIED'), ('UNSPECIFIED'), ('UNSPECIFIED') ) ;
#135 = DATE_TIME_ROLE ( 'creation_date' ) ;
#136 = ORIENTED_EDGE ( 'NONE', *, *, #64, .T. ) ;
#137 = DIRECTION ( 'NONE',  ( -3.491481338843133355E-15, 9.031770143711729009E-17, -1.000000000000000000 ) ) ;
#138 = AXIS2_PLACEMENT_3D ( 'NONE', #144, #217, #81 ) ;
#139 = FACE_OUTER_BOUND ( 'NONE', #25, .T. ) ;
#140 = DIRECTION ( 'NONE',  ( -3.491481338843133355E-15, 9.031770143711729009E-17, -1.000000000000000000 ) ) ;
#141 = CC_DESIGN_DATE_AND_TIME_ASSIGNMENT ( #132, #174, ( #216 ) ) ;
#142 = FACE_OUTER_BOUND ( 'NONE', #42, .T. ) ;
#143 = AXIS2_PLACEMENT_3D ( 'NONE', #44, #23, #213 ) ;
#144 = CARTESIAN_POINT ( 'NONE',  ( 1.396592535537258075E-15, 2.096836795633607216E-16, 0.4000000000000013545 ) ) ;
#145 =( LENGTH_UNIT ( ) NAMED_UNIT ( * ) SI_UNIT ( .MILLI., .METRE. ) );
#146 = CIRCLE ( 'NONE', #163, 2.723999999999999755 ) ;
#147 = VERTEX_POINT ( 'NONE', #88 ) ;
#148 = CARTESIAN_POINT ( 'NONE',  ( 4.447397829502603521E-14, 2.723999999999998423, 12.73785364402435327 ) ) ;
#149 = CIRCLE ( 'NONE', #157, 1.599999999999994982 ) ;
#150 = APPROVAL_PERSON_ORGANIZATION ( #54, #35, #205 ) ;
#151 = MANIFOLD_SOLID_BREP ( 'Corps-Déplacer/Copier1[1]', #224 ) ;
#152 = COORDINATED_UNIVERSAL_TIME_OFFSET ( 1, 0, .AHEAD. ) ;
#153 = ADVANCED_FACE ( 'NONE', ( #67, #142 ), #96, .T. ) ;
#154 = COORDINATED_UNIVERSAL_TIME_OFFSET ( 1, 0, .AHEAD. ) ;
#155 = PERSON_AND_ORGANIZATION ( #134, #78 ) ;
#156 = EDGE_LOOP ( 'NONE', ( #227 ) ) ;
#157 = AXIS2_PLACEMENT_3D ( 'NONE', #211, #180, #45 ) ;
#158 = FACE_OUTER_BOUND ( 'NONE', #156, .T. ) ;
#159 = CARTESIAN_POINT ( 'NONE',  ( 4.447397829502604152E-14, 2.723999999999998423, 12.73785364402435505 ) ) ;
#160 = FACE_OUTER_BOUND ( 'NONE', #79, .T. ) ;
#161 = EDGE_LOOP ( 'NONE', ( #115 ) ) ;
#162 = DIRECTION ( 'NONE',  ( 1.830266635638586959E-30, -1.000000000000000000, 5.242091989084000538E-16 ) ) ;
#163 = AXIS2_PLACEMENT_3D ( 'NONE', #84, #137, #121 ) ;
#164 = CC_DESIGN_PERSON_AND_ORGANIZATION_ASSIGNMENT ( #15, #191, ( #18 ) ) ;
#165 = VERTEX_POINT ( 'NONE', #238 ) ;
#166 = VERTEX_POINT ( 'NONE', #108 ) ;
#167 = FACE_BOUND ( 'NONE', #2, .T. ) ;
#168 = CIRCLE ( 'NONE', #80, 2.493059892324148485 ) ;
#169 = CIRCLE ( 'NONE', #138, 2.723999999999997979 ) ;
#170 = DIRECTION ( 'NONE',  ( 0.0000000000000000000, 0.0000000000000000000, 1.000000000000000000 ) ) ;
#171 = CC_DESIGN_DATE_AND_TIME_ASSIGNMENT ( #36, #135, ( #50 ) ) ;
#172 = EDGE_LOOP ( 'NONE', ( #24 ) ) ;
#173 = APPROVAL_PERSON_ORGANIZATION ( #12, #26, #241 ) ;
#174 = DATE_TIME_ROLE ( 'classification_date' ) ;
#175 = ADVANCED_FACE ( 'NONE', ( #4 ), #27, .T. ) ;
#176 = CARTESIAN_POINT ( 'NONE',  ( 4.447397829502603521E-14, -1.150453662370688066E-15, 12.73785364402435327 ) ) ;
#177 = DIRECTION ( 'NONE',  ( -3.491481338843133355E-15, 9.031770143711729009E-17, -1.000000000000000000 ) ) ;
#178 = CARTESIAN_POINT ( 'NONE',  ( 4.562964341569617501E-30, 6.850811016891619727E-31, 1.306884928985903872E-15 ) ) ;
#179 = CIRCLE ( 'NONE', #59, 2.723999999999992205 ) ;
#180 = DIRECTION ( 'NONE',  ( -3.491481338843133355E-15, 9.031770143711729009E-17, -1.000000000000000000 ) ) ;
#181 = CARTESIAN_POINT ( 'NONE',  ( 4.447397829502604152E-14, 6.677300054546451368E-15, 12.73785364402435505 ) ) ;
#182 = APPROVAL ( #76, 'UNSPECIFIED' ) ;
#183 = VERTEX_POINT ( 'NONE', #11 ) ;
#184 = AXIS2_PLACEMENT_3D ( 'NONE', #31, #220, #237 ) ;
#185 = CYLINDRICAL_SURFACE ( 'NONE', #184, 2.723999999999994870 ) ;
#186 = PERSON_AND_ORGANIZATION_ROLE ( 'design_owner' ) ;
#187 = CARTESIAN_POINT ( 'NONE',  ( 2.779219145719134403E-13, -7.189289034394536528E-15, 79.60000000000000853 ) ) ;
#188 = ORIENTED_EDGE ( 'NONE', *, *, #133, .T. ) ;
#189 = SHAPE_DEFINITION_REPRESENTATION ( #55, #219 ) ;
#190 = EDGE_LOOP ( 'NONE', ( #188 ) ) ;
#191 = PERSON_AND_ORGANIZATION_ROLE ( 'creator' ) ;
#192 = APPROVAL_DATE_TIME ( #228, #35 ) ;
#193 = CARTESIAN_POINT ( 'NONE',  ( 4.447397829502604152E-14, 6.677300054546451368E-15, 12.73785364402435505 ) ) ;
#194 = DIRECTION ( 'NONE',  ( -2.262472768736847250E-30, 1.000000000000000000, -6.368294698886974780E-16 ) ) ;
#195 = EDGE_CURVE ( 'NONE', #165, #165, #169, .T. ) ;
#196 = PLANE ( 'NONE',  #215 ) ;
#197 = CARTESIAN_POINT ( 'NONE',  ( -2.281482170784808751E-30, 2.493059892324148485, -6.534424644929519360E-16 ) ) ;
#198 = CONICAL_SURFACE ( 'NONE', #34, 1.999999999999995337, 0.7853981633974516097 ) ;
#199 = DIRECTION ( 'NONE',  ( 0.0000000000000000000, 1.000000000000000000, 0.0000000000000000000 ) ) ;
#200 = CC_DESIGN_APPROVAL ( #26, ( #50 ) ) ;
#201 = DIRECTION ( 'NONE',  ( -3.491481338843133355E-15, 9.031770143711729009E-17, -1.000000000000000000 ) ) ;
#202 = APPLICATION_PROTOCOL_DEFINITION ( 'international standard', 'config_control_design', 1994, #131 ) ;
#203 =( GEOMETRIC_REPRESENTATION_CONTEXT ( 3 ) GLOBAL_UNCERTAINTY_ASSIGNED_CONTEXT ( ( #97 ) ) GLOBAL_UNIT_ASSIGNED_CONTEXT ( ( #145, #71, #239 ) ) REPRESENTATION_CONTEXT ( 'NONE', 'WORKASPACE' ) );
#204 = ADVANCED_FACE ( 'NONE', ( #158, #52 ), #185, .T. ) ;
#205 = APPROVAL_ROLE ( '' ) ;
#206 = DESIGN_CONTEXT ( 'detailed design', #124, 'design' ) ;
#207 = CALENDAR_DATE ( 2021, 26, 11 ) ;
#208 = AXIS2_PLACEMENT_3D ( 'NONE', #103, #177, #85 ) ;
#209 = SECURITY_CLASSIFICATION_LEVEL ( 'unclassified' ) ;
#210 = EDGE_LOOP ( 'NONE', ( #61 ) ) ;
#211 = CARTESIAN_POINT ( 'NONE',  ( 2.793185071074506684E-13, -7.225416114969383207E-15, 80.00000000000000000 ) ) ;
#212 = DIRECTION ( 'NONE',  ( 3.153425691349006731E-31, 1.000000000000000000, 9.031770143711729009E-17 ) ) ;
#213 = DIRECTION ( 'NONE',  ( -3.153425691349006731E-31, -1.000000000000000000, -9.031770143711729009E-17 ) ) ;
#214 = DIRECTION ( 'NONE',  ( -3.491481338843133355E-15, 9.031770143711729009E-17, -1.000000000000000000 ) ) ;
#215 = AXIS2_PLACEMENT_3D ( 'NONE', #197, #105, #233 ) ;
#216 = SECURITY_CLASSIFICATION ( '', '', #209 ) ;
#217 = DIRECTION ( 'NONE',  ( -3.491481338843133355E-15, -5.242091989084000538E-16, -1.000000000000000000 ) ) ;
#218 = MECHANICAL_CONTEXT ( 'NONE', #131, 'mechanical' ) ;
#219 = ADVANCED_BREP_SHAPE_REPRESENTATION ( '321448', ( #151, #232, #30 ), #203 ) ;
#220 = DIRECTION ( 'NONE',  ( -3.491481338843133355E-15, -5.242091989084000538E-16, -1.000000000000000000 ) ) ;
#221 = DIRECTION ( 'NONE',  ( 1.000000000000000000, 0.0000000000000000000, 0.0000000000000000000 ) ) ;
#222 = CALENDAR_DATE ( 2021, 26, 11 ) ;
#223 = EDGE_CURVE ( 'NONE', #109, #109, #90, .T. ) ;
#224 = CLOSED_SHELL ( 'NONE', ( #129, #242, #119, #153, #83 ) ) ;
#225 = APPROVAL_DATE_TIME ( #39, #26 ) ;
#226 = CALENDAR_DATE ( 2021, 26, 11 ) ;
#227 = ORIENTED_EDGE ( 'NONE', *, *, #93, .T. ) ;
#228 = DATE_AND_TIME ( #222, #106 ) ;
#229 = ORIENTED_EDGE ( 'NONE', *, *, #68, .F. ) ;
#230 = CARTESIAN_POINT ( 'NONE',  ( 4.562964341569617501E-30, 6.850811016891619727E-31, 1.306884928985903872E-15 ) ) ;
#231 = PRODUCT_RELATED_PRODUCT_CATEGORY ( 'detail', '', ( #5 ) ) ;
#232 = MANIFOLD_SOLID_BREP ( 'Corps-Déplacer/Copier1[2]', #113 ) ;
#233 = DIRECTION ( 'NONE',  ( -1.830266635638586959E-30, 1.000000000000000000, -5.242091989084000538E-16 ) ) ;
#234 = LOCAL_TIME ( 11, 3, 55.00000000000000000, #152 ) ;
#235 = PLANE ( 'NONE',  #143 ) ;
#236 = EDGE_LOOP ( 'NONE', ( #14 ) ) ;
#237 = DIRECTION ( 'NONE',  ( -1.830266635638586959E-30, 1.000000000000000000, -5.242091989084000538E-16 ) ) ;
#238 = CARTESIAN_POINT ( 'NONE',  ( 1.396592535537253145E-15, 2.723999999999997979, 0.3999999999999999667 ) ) ;
#239 =( NAMED_UNIT ( * ) SI_UNIT ( $, .STERADIAN. ) SOLID_ANGLE_UNIT ( ) );
#240 = AXIS2_PLACEMENT_3D ( 'NONE', #176, #214, #199 ) ;
#241 = APPROVAL_ROLE ( '' ) ;
#242 = ADVANCED_FACE ( 'NONE', ( #167, #33 ), #198, .T. ) ;
#243 = CC_DESIGN_SECURITY_CLASSIFICATION ( #216, ( #18 ) ) ;
ENDSEC;
END-ISO-10303-21;
