ISO-10303-21;
HEADER;
FILE_DESCRIPTION (( 'STEP AP203' ),
    '1' );
FILE_NAME ('321447.step',
    '2021-11-26T10:03:55',
    ( '' ),
    ( '' ),
    'SwSTEP 2.0',
    'SolidWorks 2019',
    '' );
FILE_SCHEMA (( 'CONFIG_CONTROL_DESIGN' ));
ENDSEC;

DATA;
#1 = CC_DESIGN_PERSON_AND_ORGANIZATION_ASSIGNMENT ( #87, #191, ( #123 ) ) ;
#2 =( LENGTH_UNIT ( ) NAMED_UNIT ( * ) SI_UNIT ( .MILLI., .METRE. ) );
#3 = DATE_AND_TIME ( #28, #148 ) ;
#4 = APPROVAL_ROLE ( '' ) ;
#5 = AXIS2_PLACEMENT_3D ( 'NONE', #149, #13, #68 ) ;
#6 = EDGE_LOOP ( 'NONE', ( #120 ) ) ;
#7 = EDGE_LOOP ( 'NONE', ( #176 ) ) ;
#8 = APPROVAL_STATUS ( 'not_yet_approved' ) ;
#9 = CC_DESIGN_PERSON_AND_ORGANIZATION_ASSIGNMENT ( #205, #36, ( #71 ) ) ;
#10 = FACE_OUTER_BOUND ( 'NONE', #118, .T. ) ;
#11 = AXIS2_PLACEMENT_3D ( 'NONE', #150, #221, #217 ) ;
#12 = FACE_OUTER_BOUND ( 'NONE', #144, .T. ) ;
#13 = DIRECTION ( 'NONE',  ( -3.491481338843133355E-15, -5.236866297289179597E-16, -1.000000000000000000 ) ) ;
#14 = CARTESIAN_POINT ( 'NONE',  ( 0.0000000000000000000, 0.0000000000000000000, 0.0000000000000000000 ) ) ;
#15 = SECURITY_CLASSIFICATION ( '', '', #172 ) ;
#16 = DIRECTION ( 'NONE',  ( -3.491481338843133355E-15, -5.236866297289179597E-16, -1.000000000000000000 ) ) ;
#17 = DIRECTION ( 'NONE',  ( -1.841639520193753716E-30, 1.000000000000000000, -5.183754410559605173E-16 ) ) ;
#18 = APPLICATION_CONTEXT ( 'configuration controlled 3d designs of mechanical parts and assemblies' ) ;
#19 = CARTESIAN_POINT ( 'NONE',  ( 4.450421541038881657E-14, -1.151235836609247756E-15, 12.74651389806219903 ) ) ;
#20 = APPROVAL_DATE_TIME ( #222, #27 ) ;
#21 = LOCAL_TIME ( 11, 3, 55.00000000000000000, #190 ) ;
#22 = COORDINATED_UNIVERSAL_TIME_OFFSET ( 1, 0, .AHEAD. ) ;
#23 = PERSON_AND_ORGANIZATION ( #61, #198 ) ;
#24 = ORIENTED_EDGE ( 'NONE', *, *, #113, .F. ) ;
#25 = ORIENTED_EDGE ( 'NONE', *, *, #48, .T. ) ;
#26 = ORIENTED_EDGE ( 'NONE', *, *, #113, .T. ) ;
#27 = APPROVAL ( #187, 'UNSPECIFIED' ) ;
#28 = CALENDAR_DATE ( 2021, 26, 11 ) ;
#29 = EDGE_LOOP ( 'NONE', ( #233 ) ) ;
#30 = CARTESIAN_POINT ( 'NONE',  ( 2.779219145719134403E-13, -7.189289034394536528E-15, 79.60000000000000853 ) ) ;
#31 = FACE_OUTER_BOUND ( 'NONE', #141, .T. ) ;
#32 = CARTESIAN_POINT ( 'NONE',  ( 4.549273442255870512E-30, 6.823446684895162290E-31, 1.302963699574927724E-15 ) ) ;
#33 = APPROVAL_PERSON_ORGANIZATION ( #119, #102, #232 ) ;
#34 = UNCERTAINTY_MEASURE_WITH_UNIT (LENGTH_MEASURE( 1.000000000000000082E-05 ), #2, 'distance_accuracy_value', 'NONE');
#35 = CC_DESIGN_PERSON_AND_ORGANIZATION_ASSIGNMENT ( #62, #140, ( #15 ) ) ;
#36 = PERSON_AND_ORGANIZATION_ROLE ( 'design_owner' ) ;
#37 = CARTESIAN_POINT ( 'NONE',  ( 0.0000000000000000000, 2.488059892324148148, 0.0000000000000000000 ) ) ;
#38 = AXIS2_PLACEMENT_3D ( 'NONE', #220, #163, #66 ) ;
#39 = APPROVAL_PERSON_ORGANIZATION ( #114, #27, #154 ) ;
#40 = APPROVAL_STATUS ( 'not_yet_approved' ) ;
#41 = ORIENTED_EDGE ( 'NONE', *, *, #48, .F. ) ;
#42 = CC_DESIGN_APPROVAL ( #102, ( #227 ) ) ;
#43 = FACE_OUTER_BOUND ( 'NONE', #97, .T. ) ;
#44 = CARTESIAN_POINT ( 'NONE',  ( 2.779219145719134403E-13, -7.189289034394536528E-15, 79.60000000000000853 ) ) ;
#45 = CONICAL_SURFACE ( 'NONE', #185, 2.488059892324148148, 0.5235987755982978165 ) ;
#46 = AXIS2_PLACEMENT_3D ( 'NONE', #92, #109, #17 ) ;
#47 = FACE_OUTER_BOUND ( 'NONE', #7, .T. ) ;
#48 = EDGE_CURVE ( 'NONE', #129, #129, #235, .T. ) ;
#49 = DIRECTION ( 'NONE',  ( -3.491481338843133355E-15, -5.236866297289179597E-16, -1.000000000000000000 ) ) ;
#50 = DIRECTION ( 'NONE',  ( -3.491481338843133355E-15, 9.031770143711729009E-17, -1.000000000000000000 ) ) ;
#51 = MANIFOLD_SOLID_BREP ( 'Corps-Déplacer/Copier1[2]', #197 ) ;
#52 = ADVANCED_FACE ( 'NONE', ( #85, #12 ), #103, .T. ) ;
#53 = VERTEX_POINT ( 'NONE', #37 ) ;
#54 = APPLICATION_PROTOCOL_DEFINITION ( 'international standard', 'config_control_design', 1994, #237 ) ;
#55 = AXIS2_PLACEMENT_3D ( 'NONE', #196, #69, #106 ) ;
#56 = APPROVAL ( #8, 'UNSPECIFIED' ) ;
#57 = PERSON_AND_ORGANIZATION_ROLE ( 'design_supplier' ) ;
#58 = AXIS2_PLACEMENT_3D ( 'NONE', #219, #165, #126 ) ;
#59 = ADVANCED_BREP_SHAPE_REPRESENTATION ( '321447', ( #215, #51, #174 ), #182 ) ;
#60 = DATE_AND_TIME ( #94, #143 ) ;
#61 = PERSON ( 'UNSPECIFIED', 'UNSPECIFIED', 'UNSPECIFIED', ('UNSPECIFIED'), ('UNSPECIFIED'), ('UNSPECIFIED') ) ;
#62 = PERSON_AND_ORGANIZATION ( #61, #198 ) ;
#63 = FACE_OUTER_BOUND ( 'NONE', #159, .T. ) ;
#64 = DIRECTION ( 'NONE',  ( -3.491481338843133355E-15, 9.031770143711729009E-17, -1.000000000000000000 ) ) ;
#65 = ADVANCED_FACE ( 'NONE', ( #10 ), #178, .T. ) ;
#66 = DIRECTION ( 'NONE',  ( 1.828442095100170767E-30, -1.000000000000000000, 5.236866297289179597E-16 ) ) ;
#67 = CIRCLE ( 'NONE', #11, 2.488059892324148148 ) ;
#68 = DIRECTION ( 'NONE',  ( -1.828442095100170767E-30, 1.000000000000000000, -5.236866297289179597E-16 ) ) ;
#69 = DIRECTION ( 'NONE',  ( -3.491481338843133355E-15, 9.031770143711729009E-17, -1.000000000000000000 ) ) ;
#70 =( NAMED_UNIT ( * ) SI_UNIT ( $, .STERADIAN. ) SOLID_ANGLE_UNIT ( ) );
#71 = PRODUCT ( '321447', '321447', '', ( #131 ) ) ;
#72 = VERTEX_POINT ( 'NONE', #224 ) ;
#73 = LOCAL_TIME ( 11, 3, 55.00000000000000000, #136 ) ;
#74 = DIRECTION ( 'NONE',  ( 0.0000000000000000000, 1.000000000000000000, 0.0000000000000000000 ) ) ;
#75 = CC_DESIGN_DATE_AND_TIME_ASSIGNMENT ( #60, #230, ( #123 ) ) ;
#76 = SHAPE_DEFINITION_REPRESENTATION ( #135, #59 ) ;
#77 = CIRCLE ( 'NONE', #160, 2.718999999999999417 ) ;
#78 = ORIENTED_EDGE ( 'NONE', *, *, #157, .F. ) ;
#79 = EDGE_LOOP ( 'NONE', ( #26 ) ) ;
#80 = EDGE_CURVE ( 'NONE', #72, #72, #137, .T. ) ;
#81 = CC_DESIGN_APPROVAL ( #56, ( #15 ) ) ;
#82 = CARTESIAN_POINT ( 'NONE',  ( 4.450421541038882288E-14, 6.675178904069006802E-15, 12.74651389806220081 ) ) ;
#83 = DIRECTION ( 'NONE',  ( -3.491481338843133355E-15, 9.031770143711729009E-17, -1.000000000000000000 ) ) ;
#84 = DIRECTION ( 'NONE',  ( -3.491481338843133355E-15, 9.031770143711729009E-17, -1.000000000000000000 ) ) ;
#85 = FACE_BOUND ( 'NONE', #209, .T. ) ;
#86 = COORDINATED_UNIVERSAL_TIME_OFFSET ( 1, 0, .AHEAD. ) ;
#87 = PERSON_AND_ORGANIZATION ( #61, #198 ) ;
#88 = APPROVAL_PERSON_ORGANIZATION ( #138, #56, #4 ) ;
#89 = CARTESIAN_POINT ( 'NONE',  ( 1.396592535537253145E-15, 2.718999999999998085, 0.3999999999999999667 ) ) ;
#90 = CARTESIAN_POINT ( 'NONE',  ( 4.450421541038881657E-14, 2.718999999999998529, 12.74651389806219903 ) ) ;
#91 = CC_DESIGN_PERSON_AND_ORGANIZATION_ASSIGNMENT ( #96, #57, ( #227 ) ) ;
#92 = CARTESIAN_POINT ( 'NONE',  ( 1.396592535537258075E-15, 2.094746518915679086E-16, 0.4000000000000013545 ) ) ;
#93 = CLOSED_SHELL ( 'NONE', ( #100, #52, #151, #216, #132 ) ) ;
#94 = CALENDAR_DATE ( 2021, 26, 11 ) ;
#95 = APPROVAL_DATE_TIME ( #195, #102 ) ;
#96 = PERSON_AND_ORGANIZATION ( #61, #198 ) ;
#97 = EDGE_LOOP ( 'NONE', ( #41 ) ) ;
#98 = AXIS2_PLACEMENT_3D ( 'NONE', #146, #84, #108 ) ;
#99 = EDGE_LOOP ( 'NONE', ( #231 ) ) ;
#100 = ADVANCED_FACE ( 'NONE', ( #105 ), #162, .T. ) ;
#101 = ORIENTED_EDGE ( 'NONE', *, *, #80, .T. ) ;
#102 = APPROVAL ( #40, 'UNSPECIFIED' ) ;
#103 = CONICAL_SURFACE ( 'NONE', #147, 1.999999999999995337, 0.7853981633974516097 ) ;
#104 = FACE_OUTER_BOUND ( 'NONE', #193, .T. ) ;
#105 = FACE_OUTER_BOUND ( 'NONE', #29, .T. ) ;
#106 = DIRECTION ( 'NONE',  ( 0.0000000000000000000, 1.000000000000000000, 0.0000000000000000000 ) ) ;
#107 = DIRECTION ( 'NONE',  ( 3.491481338843133355E-15, 5.236866297289179597E-16, 1.000000000000000000 ) ) ;
#108 = DIRECTION ( 'NONE',  ( 3.153425691349006731E-31, 1.000000000000000000, 9.031770143711729009E-17 ) ) ;
#109 = DIRECTION ( 'NONE',  ( -3.491481338843133355E-15, -5.236866297289179597E-16, -1.000000000000000000 ) ) ;
#110 = EDGE_CURVE ( 'NONE', #169, #169, #189, .T. ) ;
#111 = DIRECTION ( 'NONE',  ( 0.0000000000000000000, 0.0000000000000000000, 1.000000000000000000 ) ) ;
#112 = CONICAL_SURFACE ( 'NONE', #226, 2.718999999999999417, 0.5235987755982929315 ) ;
#113 = EDGE_CURVE ( 'NONE', #203, #203, #77, .T. ) ;
#114 = PERSON_AND_ORGANIZATION ( #61, #198 ) ;
#115 = CARTESIAN_POINT ( 'NONE',  ( 4.450421541038881657E-14, 2.718999999999998529, 12.74651389806219903 ) ) ;
#116 = AXIS2_PLACEMENT_3D ( 'NONE', #14, #177, #239 ) ;
#117 = CALENDAR_DATE ( 2021, 26, 11 ) ;
#118 = EDGE_LOOP ( 'NONE', ( #139 ) ) ;
#119 = PERSON_AND_ORGANIZATION ( #61, #198 ) ;
#120 = ORIENTED_EDGE ( 'NONE', *, *, #243, .F. ) ;
#121 = LOCAL_TIME ( 11, 3, 55.00000000000000000, #86 ) ;
#122 = CALENDAR_DATE ( 2021, 26, 11 ) ;
#123 = PRODUCT_DEFINITION ( 'UNKNOWN', '', #227, #130 ) ;
#124 = DIRECTION ( 'NONE',  ( 0.0000000000000000000, 1.000000000000000000, 0.0000000000000000000 ) ) ;
#125 = DIRECTION ( 'NONE',  ( -3.491481338843133355E-15, 9.031770143711729009E-17, -1.000000000000000000 ) ) ;
#126 = DIRECTION ( 'NONE',  ( -3.153425691349006731E-31, -1.000000000000000000, -9.031770143711729009E-17 ) ) ;
#127 = FACE_BOUND ( 'NONE', #210, .T. ) ;
#128 = PLANE ( 'NONE',  #38 ) ;
#129 = VERTEX_POINT ( 'NONE', #115 ) ;
#130 = DESIGN_CONTEXT ( 'detailed design', #18, 'design' ) ;
#131 = MECHANICAL_CONTEXT ( 'NONE', #237, 'mechanical' ) ;
#132 = ADVANCED_FACE ( 'NONE', ( #200 ), #238, .T. ) ;
#133 = FACE_OUTER_BOUND ( 'NONE', #192, .T. ) ;
#134 = APPLICATION_PROTOCOL_DEFINITION ( 'international standard', 'config_control_design', 1994, #18 ) ;
#135 = PRODUCT_DEFINITION_SHAPE ( 'NONE', 'NONE',  #123 ) ;
#136 = COORDINATED_UNIVERSAL_TIME_OFFSET ( 1, 0, .AHEAD. ) ;
#137 = CIRCLE ( 'NONE', #168, 1.999999999999995337 ) ;
#138 = PERSON_AND_ORGANIZATION ( #61, #198 ) ;
#139 = ORIENTED_EDGE ( 'NONE', *, *, #157, .T. ) ;
#140 = PERSON_AND_ORGANIZATION_ROLE ( 'classification_officer' ) ;
#141 = EDGE_LOOP ( 'NONE', ( #25 ) ) ;
#142 = CC_DESIGN_PERSON_AND_ORGANIZATION_ASSIGNMENT ( #23, #155, ( #227 ) ) ;
#143 = LOCAL_TIME ( 11, 3, 55.00000000000000000, #22 ) ;
#144 = EDGE_LOOP ( 'NONE', ( #156 ) ) ;
#145 = CYLINDRICAL_SURFACE ( 'NONE', #204, 2.718999999999994976 ) ;
#146 = CARTESIAN_POINT ( 'NONE',  ( 4.450421541038881025E-14, 2.718999999999998529, 12.74651389806219726 ) ) ;
#147 = AXIS2_PLACEMENT_3D ( 'NONE', #44, #125, #201 ) ;
#148 = LOCAL_TIME ( 11, 3, 55.00000000000000000, #171 ) ;
#149 = CARTESIAN_POINT ( 'NONE',  ( -2.274636721127935256E-30, 2.488059892324148148, -6.514818497874638622E-16 ) ) ;
#150 = CARTESIAN_POINT ( 'NONE',  ( 4.549273442255870512E-30, 6.823446684895162290E-31, 1.302963699574927724E-15 ) ) ;
#151 = ADVANCED_FACE ( 'NONE', ( #63, #104 ), #241, .T. ) ;
#152 = CALENDAR_DATE ( 2021, 26, 11 ) ;
#153 = VERTEX_POINT ( 'NONE', #206 ) ;
#154 = APPROVAL_ROLE ( '' ) ;
#155 = PERSON_AND_ORGANIZATION_ROLE ( 'creator' ) ;
#156 = ORIENTED_EDGE ( 'NONE', *, *, #80, .F. ) ;
#157 = EDGE_CURVE ( 'NONE', #53, #53, #67, .T. ) ;
#158 = ORIENTED_EDGE ( 'NONE', *, *, #110, .F. ) ;
#159 = EDGE_LOOP ( 'NONE', ( #101 ) ) ;
#160 = AXIS2_PLACEMENT_3D ( 'NONE', #161, #64, #199 ) ;
#161 = CARTESIAN_POINT ( 'NONE',  ( 4.450421541038881657E-14, -1.151235836609247756E-15, 12.74651389806219903 ) ) ;
#162 = PLANE ( 'NONE',  #58 ) ;
#163 = DIRECTION ( 'NONE',  ( 3.491481338843133355E-15, 5.236866297289179597E-16, 1.000000000000000000 ) ) ;
#164 = DIRECTION ( 'NONE',  ( -2.266633255623086940E-30, 1.000000000000000000, -6.380005428381067843E-16 ) ) ;
#165 = DIRECTION ( 'NONE',  ( 3.491481338843133355E-15, -9.031770143711729009E-17, 1.000000000000000000 ) ) ;
#166 = ADVANCED_FACE ( 'NONE', ( #31, #240 ), #145, .T. ) ;
#167 = DIRECTION ( 'NONE',  ( -3.491481338843133355E-15, 9.031770143711729009E-17, -1.000000000000000000 ) ) ;
#168 = AXIS2_PLACEMENT_3D ( 'NONE', #30, #83, #124 ) ;
#169 = VERTEX_POINT ( 'NONE', #242 ) ;
#170 =( NAMED_UNIT ( * ) PLANE_ANGLE_UNIT ( ) SI_UNIT ( $, .RADIAN. ) );
#171 = COORDINATED_UNIVERSAL_TIME_OFFSET ( 1, 0, .AHEAD. ) ;
#172 = SECURITY_CLASSIFICATION_LEVEL ( 'unclassified' ) ;
#173 = ORIENTED_EDGE ( 'NONE', *, *, #234, .T. ) ;
#174 = AXIS2_PLACEMENT_3D ( 'NONE', #229, #111, #225 ) ;
#175 = DATE_TIME_ROLE ( 'classification_date' ) ;
#176 = ORIENTED_EDGE ( 'NONE', *, *, #243, .T. ) ;
#177 = DIRECTION ( 'NONE',  ( -3.491481338843133355E-15, 9.031770143711729009E-17, -1.000000000000000000 ) ) ;
#178 = PLANE ( 'NONE',  #5 ) ;
#179 = ADVANCED_FACE ( 'NONE', ( #43 ), #128, .T. ) ;
#180 = CARTESIAN_POINT ( 'NONE',  ( 0.0000000000000000000, 0.0000000000000000000, 0.0000000000000000000 ) ) ;
#181 = AXIS2_PLACEMENT_3D ( 'NONE', #82, #16, #164 ) ;
#182 =( GEOMETRIC_REPRESENTATION_CONTEXT ( 3 ) GLOBAL_UNCERTAINTY_ASSIGNED_CONTEXT ( ( #34 ) ) GLOBAL_UNIT_ASSIGNED_CONTEXT ( ( #2, #170, #70 ) ) REPRESENTATION_CONTEXT ( 'NONE', 'WORKASPACE' ) );
#183 = FACE_BOUND ( 'NONE', #99, .T. ) ;
#184 = VERTEX_POINT ( 'NONE', #89 ) ;
#185 = AXIS2_PLACEMENT_3D ( 'NONE', #32, #107, #202 ) ;
#186 = CC_DESIGN_APPROVAL ( #27, ( #123 ) ) ;
#187 = APPROVAL_STATUS ( 'not_yet_approved' ) ;
#188 = CC_DESIGN_DATE_AND_TIME_ASSIGNMENT ( #208, #175, ( #15 ) ) ;
#189 = CIRCLE ( 'NONE', #55, 1.999999999999991784 ) ;
#190 = COORDINATED_UNIVERSAL_TIME_OFFSET ( 1, 0, .AHEAD. ) ;
#191 = PERSON_AND_ORGANIZATION_ROLE ( 'creator' ) ;
#192 = EDGE_LOOP ( 'NONE', ( #24 ) ) ;
#193 = EDGE_LOOP ( 'NONE', ( #158 ) ) ;
#194 = CIRCLE ( 'NONE', #46, 2.718999999999998085 ) ;
#195 = DATE_AND_TIME ( #117, #21 ) ;
#196 = CARTESIAN_POINT ( 'NONE',  ( 4.885231259955590439E-14, -1.263712492114123682E-15, 13.99185842870425134 ) ) ;
#197 = CLOSED_SHELL ( 'NONE', ( #179, #166, #213, #65 ) ) ;
#198 = ORGANIZATION ( 'UNSPECIFIED', 'UNSPECIFIED', '' ) ;
#199 = DIRECTION ( 'NONE',  ( 0.0000000000000000000, 1.000000000000000000, 0.0000000000000000000 ) ) ;
#200 = FACE_OUTER_BOUND ( 'NONE', #79, .T. ) ;
#201 = DIRECTION ( 'NONE',  ( 0.0000000000000000000, 1.000000000000000000, 0.0000000000000000000 ) ) ;
#202 = DIRECTION ( 'NONE',  ( 1.828442095100170767E-30, -1.000000000000000000, 5.236866297289179597E-16 ) ) ;
#203 = VERTEX_POINT ( 'NONE', #90 ) ;
#204 = AXIS2_PLACEMENT_3D ( 'NONE', #180, #49, #214 ) ;
#205 = PERSON_AND_ORGANIZATION ( #61, #198 ) ;
#206 = CARTESIAN_POINT ( 'NONE',  ( 2.793185071074506684E-13, 1.599999999999987876, 80.00000000000000000 ) ) ;
#207 = CARTESIAN_POINT ( 'NONE',  ( 2.793185071074506684E-13, -7.225416114969383207E-15, 80.00000000000000000 ) ) ;
#208 = DATE_AND_TIME ( #122, #73 ) ;
#209 = EDGE_LOOP ( 'NONE', ( #173 ) ) ;
#210 = EDGE_LOOP ( 'NONE', ( #78 ) ) ;
#211 = APPROVAL_DATE_TIME ( #3, #56 ) ;
#212 = AXIS2_PLACEMENT_3D ( 'NONE', #207, #167, #228 ) ;
#213 = ADVANCED_FACE ( 'NONE', ( #47, #127 ), #45, .T. ) ;
#214 = DIRECTION ( 'NONE',  ( -1.828442095100170767E-30, 1.000000000000000000, -5.236866297289179597E-16 ) ) ;
#215 = MANIFOLD_SOLID_BREP ( 'Corps-Déplacer/Copier1[1]', #93 ) ;
#216 = ADVANCED_FACE ( 'NONE', ( #183, #133 ), #112, .T. ) ;
#217 = DIRECTION ( 'NONE',  ( -1.828442095100170767E-30, 1.000000000000000000, -5.236866297289179597E-16 ) ) ;
#218 = CIRCLE ( 'NONE', #212, 1.599999999999994982 ) ;
#219 = CARTESIAN_POINT ( 'NONE',  ( 2.793185071074506684E-13, -7.225416114969383207E-15, 80.00000000000000000 ) ) ;
#220 = CARTESIAN_POINT ( 'NONE',  ( 4.450421541038881025E-14, 6.675178904069004435E-15, 12.74651389806219726 ) ) ;
#221 = DIRECTION ( 'NONE',  ( -3.491481338843133355E-15, -5.236866297289179597E-16, -1.000000000000000000 ) ) ;
#222 = DATE_AND_TIME ( #152, #121 ) ;
#223 = PRODUCT_RELATED_PRODUCT_CATEGORY ( 'detail', '', ( #71 ) ) ;
#224 = CARTESIAN_POINT ( 'NONE',  ( 2.779219145719134403E-13, 1.999999999999988010, 79.60000000000000853 ) ) ;
#225 = DIRECTION ( 'NONE',  ( 1.000000000000000000, 0.0000000000000000000, 0.0000000000000000000 ) ) ;
#226 = AXIS2_PLACEMENT_3D ( 'NONE', #19, #50, #74 ) ;
#227 = PRODUCT_DEFINITION_FORMATION_WITH_SPECIFIED_SOURCE ( 'ANY', '', #71, .NOT_KNOWN. ) ;
#228 = DIRECTION ( 'NONE',  ( 0.0000000000000000000, 1.000000000000000000, 0.0000000000000000000 ) ) ;
#229 = CARTESIAN_POINT ( 'NONE',  ( 0.0000000000000000000, 0.0000000000000000000, 0.0000000000000000000 ) ) ;
#230 = DATE_TIME_ROLE ( 'creation_date' ) ;
#231 = ORIENTED_EDGE ( 'NONE', *, *, #110, .T. ) ;
#232 = APPROVAL_ROLE ( '' ) ;
#233 = ORIENTED_EDGE ( 'NONE', *, *, #234, .F. ) ;
#234 = EDGE_CURVE ( 'NONE', #153, #153, #218, .T. ) ;
#235 = CIRCLE ( 'NONE', #181, 2.718999999999991868 ) ;
#236 = CC_DESIGN_SECURITY_CLASSIFICATION ( #15, ( #227 ) ) ;
#237 = APPLICATION_CONTEXT ( 'configuration controlled 3d designs of mechanical parts and assemblies' ) ;
#238 = PLANE ( 'NONE',  #98 ) ;
#239 = DIRECTION ( 'NONE',  ( 3.153425691349006731E-31, 1.000000000000000000, 9.031770143711729009E-17 ) ) ;
#240 = FACE_OUTER_BOUND ( 'NONE', #6, .T. ) ;
#241 = CYLINDRICAL_SURFACE ( 'NONE', #116, 1.999999999999993561 ) ;
#242 = CARTESIAN_POINT ( 'NONE',  ( 4.885231259955590439E-14, 1.999999999999990452, 13.99185842870425134 ) ) ;
#243 = EDGE_CURVE ( 'NONE', #184, #184, #194, .T. ) ;
ENDSEC;
END-ISO-10303-21;
