ISO-10303-21;
HEADER;
FILE_DESCRIPTION (( 'STEP AP203' ),
    '1' );
FILE_NAME ('321446.step',
    '2021-11-26T10:03:54',
    ( '' ),
    ( '' ),
    'SwSTEP 2.0',
    'SolidWorks 2019',
    '' );
FILE_SCHEMA (( 'CONFIG_CONTROL_DESIGN' ));
ENDSEC;

DATA;
#1 = ADVANCED_FACE ( 'NONE', ( #73 ), #32, .T. ) ;
#2 = VERTEX_POINT ( 'NONE', #227 ) ;
#3 = PERSON_AND_ORGANIZATION_ROLE ( 'creator' ) ;
#4 = PERSON_AND_ORGANIZATION ( #240, #55 ) ;
#5 = COORDINATED_UNIVERSAL_TIME_OFFSET ( 1, 0, .AHEAD. ) ;
#6 = CIRCLE ( 'NONE', #146, 1.999999999999991784 ) ;
#7 = ORIENTED_EDGE ( 'NONE', *, *, #53, .F. ) ;
#8 = PERSON_AND_ORGANIZATION_ROLE ( 'classification_officer' ) ;
#9 = SECURITY_CLASSIFICATION_LEVEL ( 'unclassified' ) ;
#10 = APPROVAL ( #82, 'UNSPECIFIED' ) ;
#11 = CARTESIAN_POINT ( 'NONE',  ( 2.793185071074506684E-13, -7.225416114969383207E-15, 80.00000000000000000 ) ) ;
#12 = AXIS2_PLACEMENT_3D ( 'NONE', #238, #109, #205 ) ;
#13 = AXIS2_PLACEMENT_3D ( 'NONE', #22, #80, #75 ) ;
#14 = FACE_OUTER_BOUND ( 'NONE', #208, .T. ) ;
#15 = ADVANCED_FACE ( 'NONE', ( #202 ), #184, .T. ) ;
#16 = CARTESIAN_POINT ( 'NONE',  ( 2.779219145719134403E-13, -7.189289034394536528E-15, 79.60000000000000853 ) ) ;
#17 = ORIENTED_EDGE ( 'NONE', *, *, #168, .F. ) ;
#18 = LOCAL_TIME ( 11, 3, 54.00000000000000000, #5 ) ;
#19 = FACE_OUTER_BOUND ( 'NONE', #233, .T. ) ;
#20 = DIRECTION ( 'NONE',  ( 0.0000000000000000000, 1.000000000000000000, 0.0000000000000000000 ) ) ;
#21 = VERTEX_POINT ( 'NONE', #230 ) ;
#22 = CARTESIAN_POINT ( 'NONE',  ( 4.535606940327954977E-30, 6.796169110397815948E-31, 1.299049457852975985E-15 ) ) ;
#23 = CIRCLE ( 'NONE', #12, 2.483059892324148699 ) ;
#24 = MECHANICAL_CONTEXT ( 'NONE', #186, 'mechanical' ) ;
#25 = EDGE_LOOP ( 'NONE', ( #143 ) ) ;
#26 = ORIENTED_EDGE ( 'NONE', *, *, #53, .T. ) ;
#27 = APPROVAL_STATUS ( 'not_yet_approved' ) ;
#28 = ADVANCED_FACE ( 'NONE', ( #54, #14 ), #237, .T. ) ;
#29 = FACE_OUTER_BOUND ( 'NONE', #64, .T. ) ;
#30 = EDGE_CURVE ( 'NONE', #150, #150, #126, .T. ) ;
#31 = DIRECTION ( 'NONE',  ( 0.0000000000000000000, 1.000000000000000000, 0.0000000000000000000 ) ) ;
#32 = PLANE ( 'NONE',  #84 ) ;
#33 = FACE_OUTER_BOUND ( 'NONE', #25, .T. ) ;
#34 = PRODUCT_DEFINITION_FORMATION_WITH_SPECIFIED_SOURCE ( 'ANY', '', #133, .NOT_KNOWN. ) ;
#35 = EDGE_CURVE ( 'NONE', #95, #95, #23, .T. ) ;
#36 = DIRECTION ( 'NONE',  ( -3.491481338843133355E-15, -5.231647701566566668E-16, -1.000000000000000000 ) ) ;
#37 =( NAMED_UNIT ( * ) SI_UNIT ( $, .STERADIAN. ) SOLID_ANGLE_UNIT ( ) );
#38 = CARTESIAN_POINT ( 'NONE',  ( 4.453445252575159161E-14, 6.673057753591548825E-15, 12.75517415210004479 ) ) ;
#39 = CARTESIAN_POINT ( 'NONE',  ( 4.453445252575158530E-14, 2.713999999999998192, 12.75517415210004302 ) ) ;
#40 = FACE_BOUND ( 'NONE', #74, .T. ) ;
#41 = AXIS2_PLACEMENT_3D ( 'NONE', #70, #106, #48 ) ;
#42 = CC_DESIGN_PERSON_AND_ORGANIZATION_ASSIGNMENT ( #4, #47, ( #219 ) ) ;
#43 = LOCAL_TIME ( 11, 3, 54.00000000000000000, #136 ) ;
#44 = PERSON_AND_ORGANIZATION ( #240, #55 ) ;
#45 = ORIENTED_EDGE ( 'NONE', *, *, #30, .T. ) ;
#46 = SHAPE_DEFINITION_REPRESENTATION ( #78, #130 ) ;
#47 = PERSON_AND_ORGANIZATION_ROLE ( 'creator' ) ;
#48 = DIRECTION ( 'NONE',  ( 0.0000000000000000000, 1.000000000000000000, 0.0000000000000000000 ) ) ;
#49 = DIRECTION ( 'NONE',  ( -1.826620032142123821E-30, 1.000000000000000000, -5.231647701566566668E-16 ) ) ;
#50 = AXIS2_PLACEMENT_3D ( 'NONE', #38, #92, #243 ) ;
#51 = AXIS2_PLACEMENT_3D ( 'NONE', #235, #193, #196 ) ;
#52 = CARTESIAN_POINT ( 'NONE',  ( -2.267803470163977488E-30, 2.483059892324148699, -6.495247289264879927E-16 ) ) ;
#53 = EDGE_CURVE ( 'NONE', #2, #2, #101, .T. ) ;
#54 = FACE_BOUND ( 'NONE', #155, .T. ) ;
#55 = ORGANIZATION ( 'UNSPECIFIED', 'UNSPECIFIED', '' ) ;
#56 = VERTEX_POINT ( 'NONE', #39 ) ;
#57 = EDGE_CURVE ( 'NONE', #58, #58, #161, .T. ) ;
#58 = VERTEX_POINT ( 'NONE', #152 ) ;
#59 = CC_DESIGN_SECURITY_CLASSIFICATION ( #120, ( #34 ) ) ;
#60 = CARTESIAN_POINT ( 'NONE',  ( 4.885231259955590439E-14, 1.999999999999990452, 13.99185842870425134 ) ) ;
#61 = FACE_OUTER_BOUND ( 'NONE', #166, .T. ) ;
#62 = ADVANCED_FACE ( 'NONE', ( #33, #68 ), #108, .T. ) ;
#63 = DATE_TIME_ROLE ( 'classification_date' ) ;
#64 = EDGE_LOOP ( 'NONE', ( #164 ) ) ;
#65 = DATE_AND_TIME ( #234, #213 ) ;
#66 = CALENDAR_DATE ( 2021, 26, 11 ) ;
#67 = PERSON_AND_ORGANIZATION ( #240, #55 ) ;
#68 = FACE_OUTER_BOUND ( 'NONE', #124, .T. ) ;
#69 = CC_DESIGN_DATE_AND_TIME_ASSIGNMENT ( #200, #63, ( #120 ) ) ;
#70 = CARTESIAN_POINT ( 'NONE',  ( 4.453445252575158530E-14, -1.152018010847807250E-15, 12.75517415210004302 ) ) ;
#71 = DIRECTION ( 'NONE',  ( -3.491481338843133355E-15, 9.031770143711729009E-17, -1.000000000000000000 ) ) ;
#72 = AXIS2_PLACEMENT_3D ( 'NONE', #122, #183, #105 ) ;
#73 = FACE_OUTER_BOUND ( 'NONE', #100, .T. ) ;
#74 = EDGE_LOOP ( 'NONE', ( #226 ) ) ;
#75 = DIRECTION ( 'NONE',  ( 1.826620032142123821E-30, -1.000000000000000000, 5.231647701566566668E-16 ) ) ;
#76 = ADVANCED_FACE ( 'NONE', ( #19, #29 ), #167, .T. ) ;
#77 = VERTEX_POINT ( 'NONE', #60 ) ;
#78 = PRODUCT_DEFINITION_SHAPE ( 'NONE', 'NONE',  #219 ) ;
#79 =( LENGTH_UNIT ( ) NAMED_UNIT ( * ) SI_UNIT ( .MILLI., .METRE. ) );
#80 = DIRECTION ( 'NONE',  ( 3.491481338843133355E-15, 5.231647701566566668E-16, 1.000000000000000000 ) ) ;
#81 = APPROVAL ( #154, 'UNSPECIFIED' ) ;
#82 = APPROVAL_STATUS ( 'not_yet_approved' ) ;
#83 = DATE_AND_TIME ( #174, #18 ) ;
#84 = AXIS2_PLACEMENT_3D ( 'NONE', #206, #123, #147 ) ;
#85 = PERSON_AND_ORGANIZATION ( #240, #55 ) ;
#86 = CALENDAR_DATE ( 2021, 26, 11 ) ;
#87 = CARTESIAN_POINT ( 'NONE',  ( 4.453445252575158530E-14, -1.152018010847807250E-15, 12.75517415210004302 ) ) ;
#88 = DIRECTION ( 'NONE',  ( -3.491481338843133355E-15, -5.231647701566566668E-16, -1.000000000000000000 ) ) ;
#89 = EDGE_LOOP ( 'NONE', ( #26 ) ) ;
#90 = CARTESIAN_POINT ( 'NONE',  ( 1.396592535537258075E-15, 2.092659080626633915E-16, 0.4000000000000013545 ) ) ;
#91 = PLANE ( 'NONE',  #50 ) ;
#92 = DIRECTION ( 'NONE',  ( 3.491481338843133355E-15, 5.231647701566566668E-16, 1.000000000000000000 ) ) ;
#93 = LOCAL_TIME ( 11, 3, 54.00000000000000000, #195 ) ;
#94 = DIRECTION ( 'NONE',  ( -3.491481338843133355E-15, 9.031770143711729009E-17, -1.000000000000000000 ) ) ;
#95 = VERTEX_POINT ( 'NONE', #188 ) ;
#96 = ADVANCED_FACE ( 'NONE', ( #127, #163 ), #157, .T. ) ;
#97 =( NAMED_UNIT ( * ) PLANE_ANGLE_UNIT ( ) SI_UNIT ( $, .RADIAN. ) );
#98 = AXIS2_PLACEMENT_3D ( 'NONE', #52, #220, #148 ) ;
#99 = PERSON_AND_ORGANIZATION ( #240, #55 ) ;
#100 = EDGE_LOOP ( 'NONE', ( #239 ) ) ;
#101 = CIRCLE ( 'NONE', #222, 2.713999999999999524 ) ;
#102 = EDGE_CURVE ( 'NONE', #56, #56, #137, .T. ) ;
#103 = AXIS2_PLACEMENT_3D ( 'NONE', #241, #88, #49 ) ;
#104 = CC_DESIGN_APPROVAL ( #228, ( #120 ) ) ;
#105 = DIRECTION ( 'NONE',  ( 3.153425691349006731E-31, 1.000000000000000000, 9.031770143711729009E-17 ) ) ;
#106 = DIRECTION ( 'NONE',  ( -3.491481338843133355E-15, 9.031770143711729009E-17, -1.000000000000000000 ) ) ;
#107 = ORIENTED_EDGE ( 'NONE', *, *, #102, .T. ) ;
#108 = CYLINDRICAL_SURFACE ( 'NONE', #72, 1.999999999999993561 ) ;
#109 = DIRECTION ( 'NONE',  ( -3.491481338843133355E-15, -5.231647701566566668E-16, -1.000000000000000000 ) ) ;
#110 = DIRECTION ( 'NONE',  ( -3.491481338843133355E-15, 9.031770143711729009E-17, -1.000000000000000000 ) ) ;
#111 = CC_DESIGN_PERSON_AND_ORGANIZATION_ASSIGNMENT ( #231, #8, ( #120 ) ) ;
#112 = AXIS2_PLACEMENT_3D ( 'NONE', #172, #110, #20 ) ;
#113 = DIRECTION ( 'NONE',  ( 0.0000000000000000000, 1.000000000000000000, 0.0000000000000000000 ) ) ;
#114 = DIRECTION ( 'NONE',  ( 0.0000000000000000000, 1.000000000000000000, 0.0000000000000000000 ) ) ;
#115 = DATE_AND_TIME ( #86, #43 ) ;
#116 = CLOSED_SHELL ( 'NONE', ( #1, #96, #62, #28, #189 ) ) ;
#117 = APPROVAL_PERSON_ORGANIZATION ( #179, #10, #214 ) ;
#118 = PERSON_AND_ORGANIZATION ( #240, #55 ) ;
#119 = APPROVAL_ROLE ( '' ) ;
#120 = SECURITY_CLASSIFICATION ( '', '', #9 ) ;
#121 = CC_DESIGN_DATE_AND_TIME_ASSIGNMENT ( #115, #160, ( #219 ) ) ;
#122 = CARTESIAN_POINT ( 'NONE',  ( 0.0000000000000000000, 0.0000000000000000000, 0.0000000000000000000 ) ) ;
#123 = DIRECTION ( 'NONE',  ( 3.491481338843133355E-15, -9.031770143711729009E-17, 1.000000000000000000 ) ) ;
#124 = EDGE_LOOP ( 'NONE', ( #17 ) ) ;
#125 = EDGE_LOOP ( 'NONE', ( #180 ) ) ;
#126 = CIRCLE ( 'NONE', #199, 1.599999999999994982 ) ;
#127 = FACE_BOUND ( 'NONE', #145, .T. ) ;
#128 = CARTESIAN_POINT ( 'NONE',  ( 2.793185071074506684E-13, 1.599999999999987876, 80.00000000000000000 ) ) ;
#129 = DESIGN_CONTEXT ( 'detailed design', #201, 'design' ) ;
#130 = ADVANCED_BREP_SHAPE_REPRESENTATION ( '321446', ( #134, #217, #51 ), #165 ) ;
#131 = APPROVAL_PERSON_ORGANIZATION ( #44, #228, #156 ) ;
#132 = CARTESIAN_POINT ( 'NONE',  ( 4.453445252575159161E-14, 2.713999999999998192, 12.75517415210004479 ) ) ;
#133 = PRODUCT ( '321446', '321446', '', ( #24 ) ) ;
#134 = MANIFOLD_SOLID_BREP ( 'Corps-Déplacer/Copier1[1]', #116 ) ;
#135 = PLANE ( 'NONE',  #209 ) ;
#136 = COORDINATED_UNIVERSAL_TIME_OFFSET ( 1, 0, .AHEAD. ) ;
#137 = CIRCLE ( 'NONE', #203, 2.713999999999991530 ) ;
#138 = PRODUCT_RELATED_PRODUCT_CATEGORY ( 'detail', '', ( #133 ) ) ;
#139 = APPROVAL_DATE_TIME ( #65, #228 ) ;
#140 = ORIENTED_EDGE ( 'NONE', *, *, #149, .F. ) ;
#141 = ADVANCED_FACE ( 'NONE', ( #61 ), #91, .T. ) ;
#142 = APPLICATION_PROTOCOL_DEFINITION ( 'international standard', 'config_control_design', 1994, #201 ) ;
#143 = ORIENTED_EDGE ( 'NONE', *, *, #149, .T. ) ;
#144 = CC_DESIGN_PERSON_AND_ORGANIZATION_ASSIGNMENT ( #67, #176, ( #133 ) ) ;
#145 = EDGE_LOOP ( 'NONE', ( #45 ) ) ;
#146 = AXIS2_PLACEMENT_3D ( 'NONE', #170, #210, #113 ) ;
#147 = DIRECTION ( 'NONE',  ( -3.153425691349006731E-31, -1.000000000000000000, -9.031770143711729009E-17 ) ) ;
#148 = DIRECTION ( 'NONE',  ( -1.826620032142123821E-30, 1.000000000000000000, -5.231647701566566668E-16 ) ) ;
#149 = EDGE_CURVE ( 'NONE', #21, #21, #190, .T. ) ;
#150 = VERTEX_POINT ( 'NONE', #128 ) ;
#151 = CC_DESIGN_APPROVAL ( #81, ( #34 ) ) ;
#152 = CARTESIAN_POINT ( 'NONE',  ( 1.396592535537253145E-15, 2.713999999999998636, 0.3999999999999999667 ) ) ;
#153 = FACE_OUTER_BOUND ( 'NONE', #89, .T. ) ;
#154 = APPROVAL_STATUS ( 'not_yet_approved' ) ;
#155 = EDGE_LOOP ( 'NONE', ( #204 ) ) ;
#156 = APPROVAL_ROLE ( '' ) ;
#157 = CONICAL_SURFACE ( 'NONE', #169, 1.999999999999995337, 0.7853981633974516097 ) ;
#158 = CC_DESIGN_APPROVAL ( #10, ( #219 ) ) ;
#159 = DATE_AND_TIME ( #218, #181 ) ;
#160 = DATE_TIME_ROLE ( 'creation_date' ) ;
#161 = CIRCLE ( 'NONE', #194, 2.713999999999998636 ) ;
#162 = DIRECTION ( 'NONE',  ( -1.845032371188952090E-30, 1.000000000000000000, -5.193304437108167058E-16 ) ) ;
#163 = FACE_OUTER_BOUND ( 'NONE', #236, .T. ) ;
#164 = ORIENTED_EDGE ( 'NONE', *, *, #57, .F. ) ;
#165 =( GEOMETRIC_REPRESENTATION_CONTEXT ( 3 ) GLOBAL_UNCERTAINTY_ASSIGNED_CONTEXT ( ( #223 ) ) GLOBAL_UNIT_ASSIGNED_CONTEXT ( ( #79, #97, #37 ) ) REPRESENTATION_CONTEXT ( 'NONE', 'WORKASPACE' ) );
#166 = EDGE_LOOP ( 'NONE', ( #182 ) ) ;
#167 = CYLINDRICAL_SURFACE ( 'NONE', #103, 2.713999999999995083 ) ;
#168 = EDGE_CURVE ( 'NONE', #77, #77, #6, .T. ) ;
#169 = AXIS2_PLACEMENT_3D ( 'NONE', #16, #224, #114 ) ;
#170 = CARTESIAN_POINT ( 'NONE',  ( 4.885231259955590439E-14, -1.263712492114123682E-15, 13.99185842870425134 ) ) ;
#171 = DIRECTION ( 'NONE',  ( -2.270809072232562347E-30, 1.000000000000000000, -6.391759307210068452E-16 ) ) ;
#172 = CARTESIAN_POINT ( 'NONE',  ( 2.779219145719134403E-13, -7.189289034394536528E-15, 79.60000000000000853 ) ) ;
#173 = APPROVAL_PERSON_ORGANIZATION ( #99, #81, #119 ) ;
#174 = CALENDAR_DATE ( 2021, 26, 11 ) ;
#175 = CC_DESIGN_PERSON_AND_ORGANIZATION_ASSIGNMENT ( #85, #3, ( #34 ) ) ;
#176 = PERSON_AND_ORGANIZATION_ROLE ( 'design_owner' ) ;
#177 = CONICAL_SURFACE ( 'NONE', #13, 2.483059892324148699, 0.5235987755982978165 ) ;
#178 = APPROVAL_DATE_TIME ( #83, #81 ) ;
#179 = PERSON_AND_ORGANIZATION ( #240, #55 ) ;
#180 = ORIENTED_EDGE ( 'NONE', *, *, #57, .T. ) ;
#181 = LOCAL_TIME ( 11, 3, 54.00000000000000000, #212 ) ;
#182 = ORIENTED_EDGE ( 'NONE', *, *, #102, .F. ) ;
#183 = DIRECTION ( 'NONE',  ( -3.491481338843133355E-15, 9.031770143711729009E-17, -1.000000000000000000 ) ) ;
#184 = PLANE ( 'NONE',  #98 ) ;
#185 = DIRECTION ( 'NONE',  ( 0.0000000000000000000, 1.000000000000000000, 0.0000000000000000000 ) ) ;
#186 = APPLICATION_CONTEXT ( 'configuration controlled 3d designs of mechanical parts and assemblies' ) ;
#187 = CARTESIAN_POINT ( 'NONE',  ( 4.453445252575159161E-14, 6.673057753591548825E-15, 12.75517415210004479 ) ) ;
#188 = CARTESIAN_POINT ( 'NONE',  ( 0.0000000000000000000, 2.483059892324148699, 0.0000000000000000000 ) ) ;
#189 = ADVANCED_FACE ( 'NONE', ( #153 ), #135, .T. ) ;
#190 = CIRCLE ( 'NONE', #112, 1.999999999999995337 ) ;
#191 = DIRECTION ( 'NONE',  ( 3.153425691349006731E-31, 1.000000000000000000, 9.031770143711729009E-17 ) ) ;
#192 = ADVANCED_FACE ( 'NONE', ( #211, #40 ), #177, .T. ) ;
#193 = DIRECTION ( 'NONE',  ( 0.0000000000000000000, 0.0000000000000000000, 1.000000000000000000 ) ) ;
#194 = AXIS2_PLACEMENT_3D ( 'NONE', #90, #225, #162 ) ;
#195 = COORDINATED_UNIVERSAL_TIME_OFFSET ( 1, 0, .AHEAD. ) ;
#196 = DIRECTION ( 'NONE',  ( 1.000000000000000000, 0.0000000000000000000, 0.0000000000000000000 ) ) ;
#197 = ORIENTED_EDGE ( 'NONE', *, *, #35, .T. ) ;
#198 = PERSON_AND_ORGANIZATION_ROLE ( 'design_supplier' ) ;
#199 = AXIS2_PLACEMENT_3D ( 'NONE', #11, #221, #31 ) ;
#200 = DATE_AND_TIME ( #66, #93 ) ;
#201 = APPLICATION_CONTEXT ( 'configuration controlled 3d designs of mechanical parts and assemblies' ) ;
#202 = FACE_OUTER_BOUND ( 'NONE', #215, .T. ) ;
#203 = AXIS2_PLACEMENT_3D ( 'NONE', #187, #36, #171 ) ;
#204 = ORIENTED_EDGE ( 'NONE', *, *, #168, .T. ) ;
#205 = DIRECTION ( 'NONE',  ( -1.826620032142123821E-30, 1.000000000000000000, -5.231647701566566668E-16 ) ) ;
#206 = CARTESIAN_POINT ( 'NONE',  ( 2.793185071074506684E-13, -7.225416114969383207E-15, 80.00000000000000000 ) ) ;
#207 = CLOSED_SHELL ( 'NONE', ( #141, #76, #192, #15 ) ) ;
#208 = EDGE_LOOP ( 'NONE', ( #7 ) ) ;
#209 = AXIS2_PLACEMENT_3D ( 'NONE', #132, #94, #191 ) ;
#210 = DIRECTION ( 'NONE',  ( -3.491481338843133355E-15, 9.031770143711729009E-17, -1.000000000000000000 ) ) ;
#211 = FACE_OUTER_BOUND ( 'NONE', #125, .T. ) ;
#212 = COORDINATED_UNIVERSAL_TIME_OFFSET ( 1, 0, .AHEAD. ) ;
#213 = LOCAL_TIME ( 11, 3, 54.00000000000000000, #232 ) ;
#214 = APPROVAL_ROLE ( '' ) ;
#215 = EDGE_LOOP ( 'NONE', ( #197 ) ) ;
#216 = APPROVAL_DATE_TIME ( #159, #10 ) ;
#217 = MANIFOLD_SOLID_BREP ( 'Corps-Déplacer/Copier1[2]', #207 ) ;
#218 = CALENDAR_DATE ( 2021, 26, 11 ) ;
#219 = PRODUCT_DEFINITION ( 'UNKNOWN', '', #34, #129 ) ;
#220 = DIRECTION ( 'NONE',  ( -3.491481338843133355E-15, -5.231647701566566668E-16, -1.000000000000000000 ) ) ;
#221 = DIRECTION ( 'NONE',  ( -3.491481338843133355E-15, 9.031770143711729009E-17, -1.000000000000000000 ) ) ;
#222 = AXIS2_PLACEMENT_3D ( 'NONE', #87, #71, #185 ) ;
#223 = UNCERTAINTY_MEASURE_WITH_UNIT (LENGTH_MEASURE( 1.000000000000000082E-05 ), #79, 'distance_accuracy_value', 'NONE');
#224 = DIRECTION ( 'NONE',  ( -3.491481338843133355E-15, 9.031770143711729009E-17, -1.000000000000000000 ) ) ;
#225 = DIRECTION ( 'NONE',  ( -3.491481338843133355E-15, -5.231647701566566668E-16, -1.000000000000000000 ) ) ;
#226 = ORIENTED_EDGE ( 'NONE', *, *, #35, .F. ) ;
#227 = CARTESIAN_POINT ( 'NONE',  ( 4.453445252575158530E-14, 2.713999999999998192, 12.75517415210004302 ) ) ;
#228 = APPROVAL ( #27, 'UNSPECIFIED' ) ;
#229 = APPLICATION_PROTOCOL_DEFINITION ( 'international standard', 'config_control_design', 1994, #186 ) ;
#230 = CARTESIAN_POINT ( 'NONE',  ( 2.779219145719134403E-13, 1.999999999999988010, 79.60000000000000853 ) ) ;
#231 = PERSON_AND_ORGANIZATION ( #240, #55 ) ;
#232 = COORDINATED_UNIVERSAL_TIME_OFFSET ( 1, 0, .AHEAD. ) ;
#233 = EDGE_LOOP ( 'NONE', ( #107 ) ) ;
#234 = CALENDAR_DATE ( 2021, 26, 11 ) ;
#235 = CARTESIAN_POINT ( 'NONE',  ( 0.0000000000000000000, 0.0000000000000000000, 0.0000000000000000000 ) ) ;
#236 = EDGE_LOOP ( 'NONE', ( #140 ) ) ;
#237 = CONICAL_SURFACE ( 'NONE', #41, 2.713999999999999524, 0.5235987755982930425 ) ;
#238 = CARTESIAN_POINT ( 'NONE',  ( 4.535606940327954977E-30, 6.796169110397815948E-31, 1.299049457852975985E-15 ) ) ;
#239 = ORIENTED_EDGE ( 'NONE', *, *, #30, .F. ) ;
#240 = PERSON ( 'UNSPECIFIED', 'UNSPECIFIED', 'UNSPECIFIED', ('UNSPECIFIED'), ('UNSPECIFIED'), ('UNSPECIFIED') ) ;
#241 = CARTESIAN_POINT ( 'NONE',  ( 0.0000000000000000000, 0.0000000000000000000, 0.0000000000000000000 ) ) ;
#242 = CC_DESIGN_PERSON_AND_ORGANIZATION_ASSIGNMENT ( #118, #198, ( #34 ) ) ;
#243 = DIRECTION ( 'NONE',  ( 1.826620032142123821E-30, -1.000000000000000000, 5.231647701566566668E-16 ) ) ;
ENDSEC;
END-ISO-10303-21;
