ISO-10303-21;
HEADER;
FILE_DESCRIPTION (( 'STEP AP203' ),
    '1' );
FILE_NAME ('321445.step',
    '2021-11-26T10:03:53',
    ( '' ),
    ( '' ),
    'SwSTEP 2.0',
    'SolidWorks 2019',
    '' );
FILE_SCHEMA (( 'CONFIG_CONTROL_DESIGN' ));
ENDSEC;

DATA;
#1 = FACE_OUTER_BOUND ( 'NONE', #234, .T. ) ;
#2 = DIRECTION ( 'NONE',  ( -3.491481338843133355E-15, -5.226436187472137312E-16, -1.000000000000000000 ) ) ;
#3 = ADVANCED_FACE ( 'NONE', ( #153, #59 ), #214, .T. ) ;
#4 = DIRECTION ( 'NONE',  ( -3.491481338843133355E-15, 9.031770143711729009E-17, -1.000000000000000000 ) ) ;
#5 = DIRECTION ( 'NONE',  ( -3.153425691349006731E-31, -1.000000000000000000, -9.031770143711729009E-17 ) ) ;
#6 = EDGE_CURVE ( 'NONE', #104, #104, #113, .T. ) ;
#7 = DIRECTION ( 'NONE',  ( -3.491481338843133355E-15, 9.031770143711729009E-17, -1.000000000000000000 ) ) ;
#8 = VERTEX_POINT ( 'NONE', #68 ) ;
#9 = ORIENTED_EDGE ( 'NONE', *, *, #96, .T. ) ;
#10 = CARTESIAN_POINT ( 'NONE',  ( 4.456468964111436034E-14, 2.708999999999998298, 12.76383440613788700 ) ) ;
#11 = EDGE_LOOP ( 'NONE', ( #91 ) ) ;
#12 = PERSON_AND_ORGANIZATION ( #54, #82 ) ;
#13 = CARTESIAN_POINT ( 'NONE',  ( 2.793185071074506684E-13, 1.599999999999987876, 80.00000000000000000 ) ) ;
#14 = DATE_AND_TIME ( #196, #228 ) ;
#15 = LOCAL_TIME ( 11, 3, 53.00000000000000000, #150 ) ;
#16 = APPLICATION_CONTEXT ( 'configuration controlled 3d designs of mechanical parts and assemblies' ) ;
#17 = ORIENTED_EDGE ( 'NONE', *, *, #40, .T. ) ;
#18 = EDGE_LOOP ( 'NONE', ( #219 ) ) ;
#19 = AXIS2_PLACEMENT_3D ( 'NONE', #233, #53, #206 ) ;
#20 = COORDINATED_UNIVERSAL_TIME_OFFSET ( 1, 0, .AHEAD. ) ;
#21 = CYLINDRICAL_SURFACE ( 'NONE', #139, 2.708999999999995190 ) ;
#22 = DIRECTION ( 'NONE',  ( -3.491481338843133355E-15, 9.031770143711729009E-17, -1.000000000000000000 ) ) ;
#23 = CC_DESIGN_PERSON_AND_ORGANIZATION_ASSIGNMENT ( #126, #92, ( #52 ) ) ;
#24 = DIRECTION ( 'NONE',  ( -3.491481338843133355E-15, 9.031770143711729009E-17, -1.000000000000000000 ) ) ;
#25 = PLANE ( 'NONE',  #199 ) ;
#26 = AXIS2_PLACEMENT_3D ( 'NONE', #189, #24, #99 ) ;
#27 = ADVANCED_FACE ( 'NONE', ( #137 ), #202, .T. ) ;
#28 = CARTESIAN_POINT ( 'NONE',  ( 4.521964786125047927E-30, 6.768978007629695884E-31, 1.295142189596624041E-15 ) ) ;
#29 = VERTEX_POINT ( 'NONE', #50 ) ;
#30 = CARTESIAN_POINT ( 'NONE',  ( 4.885231259955590439E-14, 1.999999999999990452, 13.99185842870425134 ) ) ;
#31 = CALENDAR_DATE ( 2021, 26, 11 ) ;
#32 = MANIFOLD_SOLID_BREP ( 'Corps-Déplacer/Copier1[1]', #210 ) ;
#33 = VERTEX_POINT ( 'NONE', #10 ) ;
#34 = CC_DESIGN_DATE_AND_TIME_ASSIGNMENT ( #212, #218, ( #235 ) ) ;
#35 = CALENDAR_DATE ( 2021, 26, 11 ) ;
#36 = AXIS2_PLACEMENT_3D ( 'NONE', #70, #143, #160 ) ;
#37 = EDGE_LOOP ( 'NONE', ( #221 ) ) ;
#38 = SHAPE_DEFINITION_REPRESENTATION ( #120, #145 ) ;
#39 = DATE_AND_TIME ( #77, #242 ) ;
#40 = EDGE_CURVE ( 'NONE', #29, #29, #66, .T. ) ;
#41 = APPROVAL_STATUS ( 'not_yet_approved' ) ;
#42 = CIRCLE ( 'NONE', #26, 2.708999999999999631 ) ;
#43 = ORIENTED_EDGE ( 'NONE', *, *, #116, .T. ) ;
#44 = CARTESIAN_POINT ( 'NONE',  ( 4.456468964111436665E-14, 6.670936603114099525E-15, 12.76383440613788878 ) ) ;
#45 = DIRECTION ( 'NONE',  ( -3.491481338843133355E-15, 9.031770143711729009E-17, -1.000000000000000000 ) ) ;
#46 = AXIS2_PLACEMENT_3D ( 'NONE', #44, #141, #118 ) ;
#47 = CARTESIAN_POINT ( 'NONE',  ( -2.260982393062523964E-30, 2.478059892324148805, -6.475710947983120204E-16 ) ) ;
#48 = CARTESIAN_POINT ( 'NONE',  ( 2.779219145719134403E-13, -7.189289034394536528E-15, 79.60000000000000853 ) ) ;
#49 = CARTESIAN_POINT ( 'NONE',  ( 4.456468964111436665E-14, 2.708999999999998298, 12.76383440613788878 ) ) ;
#50 = CARTESIAN_POINT ( 'NONE',  ( 1.396592535537253145E-15, 2.708999999999998742, 0.3999999999999999667 ) ) ;
#51 = EDGE_LOOP ( 'NONE', ( #144 ) ) ;
#52 = SECURITY_CLASSIFICATION ( '', '', #75 ) ;
#53 = DIRECTION ( 'NONE',  ( -3.491481338843133355E-15, -5.226436187472137312E-16, -1.000000000000000000 ) ) ;
#54 = PERSON ( 'UNSPECIFIED', 'UNSPECIFIED', 'UNSPECIFIED', ('UNSPECIFIED'), ('UNSPECIFIED'), ('UNSPECIFIED') ) ;
#55 = CLOSED_SHELL ( 'NONE', ( #27, #128, #146, #89 ) ) ;
#56 = APPROVAL_ROLE ( '' ) ;
#57 = CONICAL_SURFACE ( 'NONE', #194, 1.999999999999995337, 0.7853981633974516097 ) ;
#58 = EDGE_LOOP ( 'NONE', ( #192 ) ) ;
#59 = FACE_OUTER_BOUND ( 'NONE', #213, .T. ) ;
#60 = PERSON_AND_ORGANIZATION_ROLE ( 'creator' ) ;
#61 = APPROVAL_ROLE ( '' ) ;
#62 = ORIENTED_EDGE ( 'NONE', *, *, #40, .F. ) ;
#63 = DIRECTION ( 'NONE',  ( 1.824800441721342155E-30, -1.000000000000000000, 5.226436187472137312E-16 ) ) ;
#64 = CARTESIAN_POINT ( 'NONE',  ( 0.0000000000000000000, 0.0000000000000000000, 0.0000000000000000000 ) ) ;
#65 = CARTESIAN_POINT ( 'NONE',  ( 4.456468964111436034E-14, -1.152800185086366940E-15, 12.76383440613788700 ) ) ;
#66 = CIRCLE ( 'NONE', #227, 2.708999999999998742 ) ;
#67 = DIRECTION ( 'NONE',  ( 3.153425691349006731E-31, 1.000000000000000000, 9.031770143711729009E-17 ) ) ;
#68 = CARTESIAN_POINT ( 'NONE',  ( 6.842277657836020854E-46, 2.478059892324148805, 0.0000000000000000000 ) ) ;
#69 = CIRCLE ( 'NONE', #86, 2.478059892324148805 ) ;
#70 = CARTESIAN_POINT ( 'NONE',  ( 0.0000000000000000000, 0.0000000000000000000, 0.0000000000000000000 ) ) ;
#71 = ADVANCED_FACE ( 'NONE', ( #155 ), #25, .T. ) ;
#72 = CARTESIAN_POINT ( 'NONE',  ( 2.779219145719134403E-13, 1.999999999999988010, 79.60000000000000853 ) ) ;
#73 = APPROVAL ( #162, 'UNSPECIFIED' ) ;
#74 = EDGE_LOOP ( 'NONE', ( #124 ) ) ;
#75 = SECURITY_CLASSIFICATION_LEVEL ( 'unclassified' ) ;
#76 = UNCERTAINTY_MEASURE_WITH_UNIT (LENGTH_MEASURE( 1.000000000000000082E-05 ), #84, 'distance_accuracy_value', 'NONE');
#77 = CALENDAR_DATE ( 2021, 26, 11 ) ;
#78 = EDGE_CURVE ( 'NONE', #105, #105, #148, .T. ) ;
#79 =( GEOMETRIC_REPRESENTATION_CONTEXT ( 3 ) GLOBAL_UNCERTAINTY_ASSIGNED_CONTEXT ( ( #76 ) ) GLOBAL_UNIT_ASSIGNED_CONTEXT ( ( #84, #147, #87 ) ) REPRESENTATION_CONTEXT ( 'NONE', 'WORKASPACE' ) );
#80 = DIRECTION ( 'NONE',  ( 0.0000000000000000000, 1.000000000000000000, 0.0000000000000000000 ) ) ;
#81 = DIRECTION ( 'NONE',  ( -1.824800441721341804E-30, 1.000000000000000000, -5.226436187472137312E-16 ) ) ;
#82 = ORGANIZATION ( 'UNSPECIFIED', 'UNSPECIFIED', '' ) ;
#83 = CARTESIAN_POINT ( 'NONE',  ( 2.779219145719134403E-13, -7.189289034394536528E-15, 79.60000000000000853 ) ) ;
#84 =( LENGTH_UNIT ( ) NAMED_UNIT ( * ) SI_UNIT ( .MILLI., .METRE. ) );
#85 = AXIS2_PLACEMENT_3D ( 'NONE', #184, #173, #80 ) ;
#86 = AXIS2_PLACEMENT_3D ( 'NONE', #231, #191, #161 ) ;
#87 =( NAMED_UNIT ( * ) SI_UNIT ( $, .STERADIAN. ) SOLID_ANGLE_UNIT ( ) );
#88 = PERSON_AND_ORGANIZATION_ROLE ( 'design_owner' ) ;
#89 = ADVANCED_FACE ( 'NONE', ( #138 ), #172, .T. ) ;
#90 = PERSON_AND_ORGANIZATION ( #54, #82 ) ;
#91 = ORIENTED_EDGE ( 'NONE', *, *, #6, .F. ) ;
#92 = PERSON_AND_ORGANIZATION_ROLE ( 'classification_officer' ) ;
#93 = EDGE_LOOP ( 'NONE', ( #182 ) ) ;
#94 = CIRCLE ( 'NONE', #19, 2.708999999999991637 ) ;
#95 = DATE_AND_TIME ( #35, #169 ) ;
#96 = EDGE_CURVE ( 'NONE', #106, #106, #193, .T. ) ;
#97 = FACE_OUTER_BOUND ( 'NONE', #165, .T. ) ;
#98 = CC_DESIGN_APPROVAL ( #186, ( #52 ) ) ;
#99 = DIRECTION ( 'NONE',  ( 0.0000000000000000000, 1.000000000000000000, 0.0000000000000000000 ) ) ;
#100 = FACE_OUTER_BOUND ( 'NONE', #18, .T. ) ;
#101 = CARTESIAN_POINT ( 'NONE',  ( 4.885231259955590439E-14, -1.263712492114123682E-15, 13.99185842870425134 ) ) ;
#102 = CC_DESIGN_SECURITY_CLASSIFICATION ( #52, ( #223 ) ) ;
#103 = FACE_BOUND ( 'NONE', #132, .T. ) ;
#104 = VERTEX_POINT ( 'NONE', #13 ) ;
#105 = VERTEX_POINT ( 'NONE', #72 ) ;
#106 = VERTEX_POINT ( 'NONE', #30 ) ;
#107 = CC_DESIGN_PERSON_AND_ORGANIZATION_ASSIGNMENT ( #90, #60, ( #235 ) ) ;
#108 = AXIS2_PLACEMENT_3D ( 'NONE', #49, #171, #67 ) ;
#109 = APPLICATION_CONTEXT ( 'configuration controlled 3d designs of mechanical parts and assemblies' ) ;
#110 = PERSON_AND_ORGANIZATION ( #54, #82 ) ;
#111 = COORDINATED_UNIVERSAL_TIME_OFFSET ( 1, 0, .AHEAD. ) ;
#112 = DIRECTION ( 'NONE',  ( -1.848437746551057732E-30, 1.000000000000000000, -5.202889716615564331E-16 ) ) ;
#113 = CIRCLE ( 'NONE', #85, 1.599999999999994982 ) ;
#114 = PLANE ( 'NONE',  #108 ) ;
#115 = DIRECTION ( 'NONE',  ( 3.491481338843133355E-15, 5.226436187472137312E-16, 1.000000000000000000 ) ) ;
#116 = EDGE_CURVE ( 'NONE', #119, #119, #42, .T. ) ;
#117 = PRODUCT ( '321445', '321445', '', ( #176 ) ) ;
#118 = DIRECTION ( 'NONE',  ( 1.824800441721341804E-30, -1.000000000000000000, 5.226436187472137312E-16 ) ) ;
#119 = VERTEX_POINT ( 'NONE', #149 ) ;
#120 = PRODUCT_DEFINITION_SHAPE ( 'NONE', 'NONE',  #235 ) ;
#121 = ADVANCED_FACE ( 'NONE', ( #205 ), #114, .T. ) ;
#122 = AXIS2_PLACEMENT_3D ( 'NONE', #101, #7, #224 ) ;
#123 = CC_DESIGN_APPROVAL ( #73, ( #235 ) ) ;
#124 = ORIENTED_EDGE ( 'NONE', *, *, #239, .F. ) ;
#125 = APPROVAL_ROLE ( '' ) ;
#126 = PERSON_AND_ORGANIZATION ( #54, #82 ) ;
#127 = ORIENTED_EDGE ( 'NONE', *, *, #96, .F. ) ;
#128 = ADVANCED_FACE ( 'NONE', ( #201, #203 ), #21, .T. ) ;
#129 = AXIS2_PLACEMENT_3D ( 'NONE', #28, #115, #63 ) ;
#130 = PERSON_AND_ORGANIZATION ( #54, #82 ) ;
#131 = PERSON_AND_ORGANIZATION ( #54, #82 ) ;
#132 = EDGE_LOOP ( 'NONE', ( #197 ) ) ;
#133 = PERSON_AND_ORGANIZATION_ROLE ( 'creator' ) ;
#134 = APPROVAL_PERSON_ORGANIZATION ( #12, #73, #125 ) ;
#135 = ORIENTED_EDGE ( 'NONE', *, *, #116, .F. ) ;
#136 = DIRECTION ( 'NONE',  ( 0.0000000000000000000, 1.000000000000000000, 0.0000000000000000000 ) ) ;
#137 = FACE_OUTER_BOUND ( 'NONE', #74, .T. ) ;
#138 = FACE_OUTER_BOUND ( 'NONE', #37, .T. ) ;
#139 = AXIS2_PLACEMENT_3D ( 'NONE', #204, #2, #81 ) ;
#140 = CARTESIAN_POINT ( 'NONE',  ( 2.793185071074506684E-13, -7.225416114969383207E-15, 80.00000000000000000 ) ) ;
#141 = DIRECTION ( 'NONE',  ( 3.491481338843133355E-15, 5.226436187472137312E-16, 1.000000000000000000 ) ) ;
#142 = CC_DESIGN_APPROVAL ( #232, ( #223 ) ) ;
#143 = DIRECTION ( 'NONE',  ( 0.0000000000000000000, 0.0000000000000000000, 1.000000000000000000 ) ) ;
#144 = ORIENTED_EDGE ( 'NONE', *, *, #239, .T. ) ;
#145 = ADVANCED_BREP_SHAPE_REPRESENTATION ( '321445', ( #32, #188, #36 ), #79 ) ;
#146 = ADVANCED_FACE ( 'NONE', ( #97, #158 ), #178, .T. ) ;
#147 =( NAMED_UNIT ( * ) PLANE_ANGLE_UNIT ( ) SI_UNIT ( $, .RADIAN. ) );
#148 = CIRCLE ( 'NONE', #236, 1.999999999999995337 ) ;
#149 = CARTESIAN_POINT ( 'NONE',  ( 4.456468964111436034E-14, 2.708999999999998298, 12.76383440613788700 ) ) ;
#150 = COORDINATED_UNIVERSAL_TIME_OFFSET ( 1, 0, .AHEAD. ) ;
#151 = AXIS2_PLACEMENT_3D ( 'NONE', #65, #4, #225 ) ;
#152 = COORDINATED_UNIVERSAL_TIME_OFFSET ( 1, 0, .AHEAD. ) ;
#153 = FACE_BOUND ( 'NONE', #168, .T. ) ;
#154 = DESIGN_CONTEXT ( 'detailed design', #16, 'design' ) ;
#155 = FACE_OUTER_BOUND ( 'NONE', #11, .T. ) ;
#156 = CYLINDRICAL_SURFACE ( 'NONE', #243, 1.999999999999993561 ) ;
#157 = CC_DESIGN_PERSON_AND_ORGANIZATION_ASSIGNMENT ( #163, #200, ( #223 ) ) ;
#158 = FACE_BOUND ( 'NONE', #58, .T. ) ;
#159 = DIRECTION ( 'NONE',  ( -3.491481338843133355E-15, -5.226436187472137312E-16, -1.000000000000000000 ) ) ;
#160 = DIRECTION ( 'NONE',  ( 1.000000000000000000, 0.0000000000000000000, 0.0000000000000000000 ) ) ;
#161 = DIRECTION ( 'NONE',  ( -1.824800441721341804E-30, 1.000000000000000000, -5.226436187472137312E-16 ) ) ;
#162 = APPROVAL_STATUS ( 'not_yet_approved' ) ;
#163 = PERSON_AND_ORGANIZATION ( #54, #82 ) ;
#164 = CC_DESIGN_PERSON_AND_ORGANIZATION_ASSIGNMENT ( #177, #88, ( #117 ) ) ;
#165 = EDGE_LOOP ( 'NONE', ( #17 ) ) ;
#166 = ADVANCED_FACE ( 'NONE', ( #103, #100 ), #57, .T. ) ;
#167 = CALENDAR_DATE ( 2021, 26, 11 ) ;
#168 = EDGE_LOOP ( 'NONE', ( #9 ) ) ;
#169 = LOCAL_TIME ( 11, 3, 53.00000000000000000, #152 ) ;
#170 = FACE_OUTER_BOUND ( 'NONE', #93, .T. ) ;
#171 = DIRECTION ( 'NONE',  ( -3.491481338843133355E-15, 9.031770143711729009E-17, -1.000000000000000000 ) ) ;
#172 = PLANE ( 'NONE',  #241 ) ;
#173 = DIRECTION ( 'NONE',  ( -3.491481338843133355E-15, 9.031770143711729009E-17, -1.000000000000000000 ) ) ;
#174 = DIRECTION ( 'NONE',  ( -3.491481338843133355E-15, 9.031770143711729009E-17, -1.000000000000000000 ) ) ;
#175 = APPLICATION_PROTOCOL_DEFINITION ( 'international standard', 'config_control_design', 1994, #109 ) ;
#176 = MECHANICAL_CONTEXT ( 'NONE', #109, 'mechanical' ) ;
#177 = PERSON_AND_ORGANIZATION ( #54, #82 ) ;
#178 = CONICAL_SURFACE ( 'NONE', #129, 2.478059892324148805, 0.5235987755982978165 ) ;
#179 = DATE_AND_TIME ( #31, #215 ) ;
#180 = APPROVAL_PERSON_ORGANIZATION ( #130, #232, #61 ) ;
#181 = APPROVAL_DATE_TIME ( #14, #232 ) ;
#182 = ORIENTED_EDGE ( 'NONE', *, *, #78, .T. ) ;
#183 = DIRECTION ( 'NONE',  ( 3.491481338843133355E-15, -9.031770143711729009E-17, 1.000000000000000000 ) ) ;
#184 = CARTESIAN_POINT ( 'NONE',  ( 2.793185071074506684E-13, -7.225416114969383207E-15, 80.00000000000000000 ) ) ;
#185 = DIRECTION ( 'NONE',  ( 3.153425691349006731E-31, 1.000000000000000000, 9.031770143711729009E-17 ) ) ;
#186 = APPROVAL ( #41, 'UNSPECIFIED' ) ;
#187 = DIRECTION ( 'NONE',  ( -3.491481338843133355E-15, -5.226436187472137312E-16, -1.000000000000000000 ) ) ;
#188 = MANIFOLD_SOLID_BREP ( 'Corps-Déplacer/Copier1[2]', #55 ) ;
#189 = CARTESIAN_POINT ( 'NONE',  ( 4.456468964111436034E-14, -1.152800185086366940E-15, 12.76383440613788700 ) ) ;
#190 = ADVANCED_FACE ( 'NONE', ( #170, #1 ), #156, .T. ) ;
#191 = DIRECTION ( 'NONE',  ( -3.491481338843133355E-15, -5.226436187472137312E-16, -1.000000000000000000 ) ) ;
#192 = ORIENTED_EDGE ( 'NONE', *, *, #207, .F. ) ;
#193 = CIRCLE ( 'NONE', #122, 1.999999999999991784 ) ;
#194 = AXIS2_PLACEMENT_3D ( 'NONE', #48, #174, #136 ) ;
#195 = COORDINATED_UNIVERSAL_TIME_OFFSET ( 1, 0, .AHEAD. ) ;
#196 = CALENDAR_DATE ( 2021, 26, 11 ) ;
#197 = ORIENTED_EDGE ( 'NONE', *, *, #6, .T. ) ;
#198 = CC_DESIGN_PERSON_AND_ORGANIZATION_ASSIGNMENT ( #131, #133, ( #223 ) ) ;
#199 = AXIS2_PLACEMENT_3D ( 'NONE', #140, #183, #5 ) ;
#200 = PERSON_AND_ORGANIZATION_ROLE ( 'design_supplier' ) ;
#201 = FACE_OUTER_BOUND ( 'NONE', #51, .T. ) ;
#202 = PLANE ( 'NONE',  #46 ) ;
#203 = FACE_OUTER_BOUND ( 'NONE', #209, .T. ) ;
#204 = CARTESIAN_POINT ( 'NONE',  ( 0.0000000000000000000, 0.0000000000000000000, 0.0000000000000000000 ) ) ;
#205 = FACE_OUTER_BOUND ( 'NONE', #238, .T. ) ;
#206 = DIRECTION ( 'NONE',  ( -2.275000303447461841E-30, 1.000000000000000000, -6.403556574296096547E-16 ) ) ;
#207 = EDGE_CURVE ( 'NONE', #8, #8, #69, .T. ) ;
#208 = APPLICATION_PROTOCOL_DEFINITION ( 'international standard', 'config_control_design', 1994, #16 ) ;
#209 = EDGE_LOOP ( 'NONE', ( #62 ) ) ;
#210 = CLOSED_SHELL ( 'NONE', ( #71, #166, #190, #3, #121 ) ) ;
#211 = APPROVAL_PERSON_ORGANIZATION ( #110, #186, #56 ) ;
#212 = DATE_AND_TIME ( #167, #15 ) ;
#213 = EDGE_LOOP ( 'NONE', ( #135 ) ) ;
#214 = CONICAL_SURFACE ( 'NONE', #151, 2.708999999999999631, 0.5235987755982927094 ) ;
#215 = LOCAL_TIME ( 11, 3, 53.00000000000000000, #195 ) ;
#216 = PRODUCT_RELATED_PRODUCT_CATEGORY ( 'detail', '', ( #117 ) ) ;
#217 = APPROVAL_DATE_TIME ( #39, #186 ) ;
#218 = DATE_TIME_ROLE ( 'creation_date' ) ;
#219 = ORIENTED_EDGE ( 'NONE', *, *, #78, .F. ) ;
#220 = APPROVAL_DATE_TIME ( #179, #73 ) ;
#221 = ORIENTED_EDGE ( 'NONE', *, *, #207, .T. ) ;
#222 = CC_DESIGN_DATE_AND_TIME_ASSIGNMENT ( #95, #237, ( #52 ) ) ;
#223 = PRODUCT_DEFINITION_FORMATION_WITH_SPECIFIED_SOURCE ( 'ANY', '', #117, .NOT_KNOWN. ) ;
#224 = DIRECTION ( 'NONE',  ( 0.0000000000000000000, 1.000000000000000000, 0.0000000000000000000 ) ) ;
#225 = DIRECTION ( 'NONE',  ( 0.0000000000000000000, 1.000000000000000000, 0.0000000000000000000 ) ) ;
#226 = CARTESIAN_POINT ( 'NONE',  ( 1.396592535537258075E-15, 2.090574474988862074E-16, 0.4000000000000013545 ) ) ;
#227 = AXIS2_PLACEMENT_3D ( 'NONE', #226, #187, #112 ) ;
#228 = LOCAL_TIME ( 11, 3, 53.00000000000000000, #111 ) ;
#229 = DIRECTION ( 'NONE',  ( -1.824800441721341804E-30, 1.000000000000000000, -5.226436187472137312E-16 ) ) ;
#230 = DIRECTION ( 'NONE',  ( 0.0000000000000000000, 1.000000000000000000, 0.0000000000000000000 ) ) ;
#231 = CARTESIAN_POINT ( 'NONE',  ( 4.521964786125047927E-30, 6.768978007629695884E-31, 1.295142189596624041E-15 ) ) ;
#232 = APPROVAL ( #240, 'UNSPECIFIED' ) ;
#233 = CARTESIAN_POINT ( 'NONE',  ( 4.456468964111436665E-14, 6.670936603114100314E-15, 12.76383440613788878 ) ) ;
#234 = EDGE_LOOP ( 'NONE', ( #127 ) ) ;
#235 = PRODUCT_DEFINITION ( 'UNKNOWN', '', #223, #154 ) ;
#236 = AXIS2_PLACEMENT_3D ( 'NONE', #83, #22, #230 ) ;
#237 = DATE_TIME_ROLE ( 'classification_date' ) ;
#238 = EDGE_LOOP ( 'NONE', ( #43 ) ) ;
#239 = EDGE_CURVE ( 'NONE', #33, #33, #94, .T. ) ;
#240 = APPROVAL_STATUS ( 'not_yet_approved' ) ;
#241 = AXIS2_PLACEMENT_3D ( 'NONE', #47, #159, #229 ) ;
#242 = LOCAL_TIME ( 11, 3, 53.00000000000000000, #20 ) ;
#243 = AXIS2_PLACEMENT_3D ( 'NONE', #64, #45, #185 ) ;
ENDSEC;
END-ISO-10303-21;
