ISO-10303-21;
HEADER;
FILE_DESCRIPTION (( 'STEP AP203' ),
    '1' );
FILE_NAME ('321444.step',
    '2021-11-26T10:03:53',
    ( '' ),
    ( '' ),
    'SwSTEP 2.0',
    'SolidWorks 2019',
    '' );
FILE_SCHEMA (( 'CONFIG_CONTROL_DESIGN' ));
ENDSEC;

DATA;
#1 = ADVANCED_FACE ( 'NONE', ( #27 ), #232, .T. ) ;
#2 =( LENGTH_UNIT ( ) NAMED_UNIT ( * ) SI_UNIT ( .MILLI., .METRE. ) );
#3 = DIRECTION ( 'NONE',  ( 3.491481338843133355E-15, 5.221231740601018258E-16, 1.000000000000000000 ) ) ;
#4 = VERTEX_POINT ( 'NONE', #155 ) ;
#5 = DIRECTION ( 'NONE',  ( 0.0000000000000000000, 0.0000000000000000000, 1.000000000000000000 ) ) ;
#6 = APPROVAL_PERSON_ORGANIZATION ( #182, #72, #229 ) ;
#7 = DATE_AND_TIME ( #177, #65 ) ;
#8 = EDGE_LOOP ( 'NONE', ( #148 ) ) ;
#9 = EDGE_CURVE ( 'NONE', #44, #44, #84, .T. ) ;
#10 = DIRECTION ( 'NONE',  ( -3.491481338843133355E-15, 9.031770143711729009E-17, -1.000000000000000000 ) ) ;
#11 = ORIENTED_EDGE ( 'NONE', *, *, #97, .T. ) ;
#12 = PERSON_AND_ORGANIZATION_ROLE ( 'creator' ) ;
#13 = DIRECTION ( 'NONE',  ( -1.822983318808390767E-30, 1.000000000000000000, -5.221231740601018258E-16 ) ) ;
#14 = DIRECTION ( 'NONE',  ( 0.0000000000000000000, 1.000000000000000000, 0.0000000000000000000 ) ) ;
#15 = PERSON_AND_ORGANIZATION_ROLE ( 'creator' ) ;
#16 = DIRECTION ( 'NONE',  ( 3.153425691349006731E-31, 1.000000000000000000, 9.031770143711729009E-17 ) ) ;
#17 = CALENDAR_DATE ( 2021, 26, 11 ) ;
#18 = DIRECTION ( 'NONE',  ( -3.491481338843133355E-15, -5.221231740601018258E-16, -1.000000000000000000 ) ) ;
#19 = AXIS2_PLACEMENT_3D ( 'NONE', #75, #220, #163 ) ;
#20 = CC_DESIGN_PERSON_AND_ORGANIZATION_ASSIGNMENT ( #120, #12, ( #118 ) ) ;
#21 = FACE_OUTER_BOUND ( 'NONE', #70, .T. ) ;
#22 = APPLICATION_CONTEXT ( 'configuration controlled 3d designs of mechanical parts and assemblies' ) ;
#23 =( GEOMETRIC_REPRESENTATION_CONTEXT ( 3 ) GLOBAL_UNCERTAINTY_ASSIGNED_CONTEXT ( ( #73 ) ) GLOBAL_UNIT_ASSIGNED_CONTEXT ( ( #2, #85, #89 ) ) REPRESENTATION_CONTEXT ( 'NONE', 'WORKASPACE' ) );
#24 = CARTESIAN_POINT ( 'NONE',  ( 4.508346930120998884E-30, 6.741873091891812339E-31, 1.291241880621018432E-15 ) ) ;
#25 = CARTESIAN_POINT ( 'NONE',  ( 4.459492675647713538E-14, 2.703999999999998405, 12.77249466017573098 ) ) ;
#26 = CALENDAR_DATE ( 2021, 26, 11 ) ;
#27 = FACE_OUTER_BOUND ( 'NONE', #112, .T. ) ;
#28 = APPROVAL_PERSON_ORGANIZATION ( #151, #78, #132 ) ;
#29 = ORGANIZATION ( 'UNSPECIFIED', 'UNSPECIFIED', '' ) ;
#30 = CC_DESIGN_DATE_AND_TIME_ASSIGNMENT ( #7, #87, ( #118 ) ) ;
#31 = CALENDAR_DATE ( 2021, 26, 11 ) ;
#32 = EDGE_LOOP ( 'NONE', ( #91 ) ) ;
#33 = ADVANCED_FACE ( 'NONE', ( #130, #208 ), #230, .T. ) ;
#34 = MECHANICAL_CONTEXT ( 'NONE', #77, 'mechanical' ) ;
#35 = ORIENTED_EDGE ( 'NONE', *, *, #83, .T. ) ;
#36 = CALENDAR_DATE ( 2021, 26, 11 ) ;
#37 = CARTESIAN_POINT ( 'NONE',  ( 1.396592535537258075E-15, 2.088492696240414551E-16, 0.4000000000000013545 ) ) ;
#38 = LOCAL_TIME ( 11, 3, 53.00000000000000000, #134 ) ;
#39 = DIRECTION ( 'NONE',  ( 0.0000000000000000000, 1.000000000000000000, 0.0000000000000000000 ) ) ;
#40 = PERSON_AND_ORGANIZATION ( #213, #29 ) ;
#41 = CC_DESIGN_PERSON_AND_ORGANIZATION_ASSIGNMENT ( #60, #96, ( #136 ) ) ;
#42 = AXIS2_PLACEMENT_3D ( 'NONE', #53, #88, #14 ) ;
#43 = LOCAL_TIME ( 11, 3, 53.00000000000000000, #195 ) ;
#44 = VERTEX_POINT ( 'NONE', #102 ) ;
#45 = CC_DESIGN_PERSON_AND_ORGANIZATION_ASSIGNMENT ( #111, #210, ( #231 ) ) ;
#46 = DIRECTION ( 'NONE',  ( -3.153425691349006731E-31, -1.000000000000000000, -9.031770143711729009E-17 ) ) ;
#47 = MANIFOLD_SOLID_BREP ( 'Corps-Déplacer/Copier1[2]', #224 ) ;
#48 = EDGE_CURVE ( 'NONE', #173, #173, #114, .T. ) ;
#49 = CARTESIAN_POINT ( 'NONE',  ( 0.0000000000000000000, 0.0000000000000000000, 0.0000000000000000000 ) ) ;
#50 = DIRECTION ( 'NONE',  ( -3.491481338843133355E-15, 9.031770143711729009E-17, -1.000000000000000000 ) ) ;
#51 = PERSON_AND_ORGANIZATION ( #213, #29 ) ;
#52 = EDGE_LOOP ( 'NONE', ( #108 ) ) ;
#53 = CARTESIAN_POINT ( 'NONE',  ( 4.459492675647713538E-14, -1.153582359324926631E-15, 12.77249466017573098 ) ) ;
#54 = EDGE_LOOP ( 'NONE', ( #159 ) ) ;
#55 = FACE_BOUND ( 'NONE', #236, .T. ) ;
#56 = SECURITY_CLASSIFICATION_LEVEL ( 'unclassified' ) ;
#57 = DIRECTION ( 'NONE',  ( -1.822983318808390767E-30, 1.000000000000000000, -5.221231740601019244E-16 ) ) ;
#58 = EDGE_CURVE ( 'NONE', #4, #4, #143, .T. ) ;
#59 = FACE_OUTER_BOUND ( 'NONE', #8, .T. ) ;
#60 = PERSON_AND_ORGANIZATION ( #213, #29 ) ;
#61 = PLANE ( 'NONE',  #133 ) ;
#62 = CARTESIAN_POINT ( 'NONE',  ( 0.0000000000000000000, 2.473059892324149356, 0.0000000000000000000 ) ) ;
#63 = CARTESIAN_POINT ( 'NONE',  ( 4.885231259955590439E-14, -1.263712492114123682E-15, 13.99185842870425134 ) ) ;
#64 = CARTESIAN_POINT ( 'NONE',  ( 2.793185071074506684E-13, -7.225416114969383207E-15, 80.00000000000000000 ) ) ;
#65 = LOCAL_TIME ( 11, 3, 53.00000000000000000, #175 ) ;
#66 = ADVANCED_FACE ( 'NONE', ( #109, #180 ), #110, .T. ) ;
#67 = DIRECTION ( 'NONE',  ( -2.279207034777800343E-30, 1.000000000000000000, -6.415397470328446715E-16 ) ) ;
#68 = DATE_AND_TIME ( #31, #43 ) ;
#69 = EDGE_LOOP ( 'NONE', ( #90 ) ) ;
#70 = EDGE_LOOP ( 'NONE', ( #237 ) ) ;
#71 = AXIS2_PLACEMENT_3D ( 'NONE', #194, #18, #168 ) ;
#72 = APPROVAL ( #193, 'UNSPECIFIED' ) ;
#73 = UNCERTAINTY_MEASURE_WITH_UNIT (LENGTH_MEASURE( 1.000000000000000082E-05 ), #2, 'distance_accuracy_value', 'NONE');
#74 = CYLINDRICAL_SURFACE ( 'NONE', #202, 2.703999999999995296 ) ;
#75 = CARTESIAN_POINT ( 'NONE',  ( 2.779219145719134403E-13, -7.189289034394536528E-15, 79.60000000000000853 ) ) ;
#76 = VERTEX_POINT ( 'NONE', #152 ) ;
#77 = APPLICATION_CONTEXT ( 'configuration controlled 3d designs of mechanical parts and assemblies' ) ;
#78 = APPROVAL ( #219, 'UNSPECIFIED' ) ;
#79 = PRODUCT_DEFINITION_FORMATION_WITH_SPECIFIED_SOURCE ( 'ANY', '', #231, .NOT_KNOWN. ) ;
#80 = ADVANCED_BREP_SHAPE_REPRESENTATION ( '321444', ( #131, #47, #242 ), #23 ) ;
#81 = CARTESIAN_POINT ( 'NONE',  ( 2.779219145719134403E-13, 1.999999999999988010, 79.60000000000000853 ) ) ;
#82 = DIRECTION ( 'NONE',  ( 1.822983318808390767E-30, -1.000000000000000000, 5.221231740601018258E-16 ) ) ;
#83 = EDGE_CURVE ( 'NONE', #139, #139, #181, .T. ) ;
#84 = CIRCLE ( 'NONE', #42, 2.703999999999999737 ) ;
#85 =( NAMED_UNIT ( * ) PLANE_ANGLE_UNIT ( ) SI_UNIT ( $, .RADIAN. ) );
#86 = APPROVAL_PERSON_ORGANIZATION ( #51, #201, #235 ) ;
#87 = DATE_TIME_ROLE ( 'creation_date' ) ;
#88 = DIRECTION ( 'NONE',  ( -3.491481338843133355E-15, 9.031770143711729009E-17, -1.000000000000000000 ) ) ;
#89 =( NAMED_UNIT ( * ) SI_UNIT ( $, .STERADIAN. ) SOLID_ANGLE_UNIT ( ) );
#90 = ORIENTED_EDGE ( 'NONE', *, *, #48, .T. ) ;
#91 = ORIENTED_EDGE ( 'NONE', *, *, #116, .F. ) ;
#92 = EDGE_LOOP ( 'NONE', ( #11 ) ) ;
#93 = DATE_AND_TIME ( #36, #198 ) ;
#94 = ORIENTED_EDGE ( 'NONE', *, *, #9, .F. ) ;
#95 = ADVANCED_FACE ( 'NONE', ( #243, #59 ), #74, .T. ) ;
#96 = PERSON_AND_ORGANIZATION_ROLE ( 'classification_officer' ) ;
#97 = EDGE_CURVE ( 'NONE', #207, #207, #104, .T. ) ;
#98 = DESIGN_CONTEXT ( 'detailed design', #22, 'design' ) ;
#99 = CIRCLE ( 'NONE', #19, 1.999999999999995337 ) ;
#100 = CARTESIAN_POINT ( 'NONE',  ( 4.459492675647712907E-14, 6.668815452636653381E-15, 12.77249466017572921 ) ) ;
#101 = FACE_OUTER_BOUND ( 'NONE', #92, .T. ) ;
#102 = CARTESIAN_POINT ( 'NONE',  ( 4.459492675647713538E-14, 2.703999999999998405, 12.77249466017573098 ) ) ;
#103 = DIRECTION ( 'NONE',  ( -3.491481338843133355E-15, 9.031770143711729009E-17, -1.000000000000000000 ) ) ;
#104 = CIRCLE ( 'NONE', #115, 2.703999999999998849 ) ;
#105 = DIRECTION ( 'NONE',  ( -3.491481338843133355E-15, -5.221231740601018258E-16, -1.000000000000000000 ) ) ;
#106 = APPROVAL_DATE_TIME ( #162, #72 ) ;
#107 = EDGE_LOOP ( 'NONE', ( #94 ) ) ;
#108 = ORIENTED_EDGE ( 'NONE', *, *, #58, .F. ) ;
#109 = FACE_BOUND ( 'NONE', #214, .T. ) ;
#110 = CONICAL_SURFACE ( 'NONE', #200, 1.999999999999995337, 0.7853981633974516097 ) ;
#111 = PERSON_AND_ORGANIZATION ( #213, #29 ) ;
#112 = EDGE_LOOP ( 'NONE', ( #35 ) ) ;
#113 = CARTESIAN_POINT ( 'NONE',  ( 0.0000000000000000000, 0.0000000000000000000, 0.0000000000000000000 ) ) ;
#114 = CIRCLE ( 'NONE', #121, 2.703999999999992188 ) ;
#115 = AXIS2_PLACEMENT_3D ( 'NONE', #37, #167, #240 ) ;
#116 = EDGE_CURVE ( 'NONE', #76, #76, #153, .T. ) ;
#117 = CARTESIAN_POINT ( 'NONE',  ( 4.459492675647713538E-14, -1.153582359324926631E-15, 12.77249466017573098 ) ) ;
#118 = PRODUCT_DEFINITION ( 'UNKNOWN', '', #79, #98 ) ;
#119 = DIRECTION ( 'NONE',  ( 3.491481338843133355E-15, 5.221231740601018258E-16, 1.000000000000000000 ) ) ;
#120 = PERSON_AND_ORGANIZATION ( #213, #29 ) ;
#121 = AXIS2_PLACEMENT_3D ( 'NONE', #197, #126, #67 ) ;
#122 = CONICAL_SURFACE ( 'NONE', #137, 2.473059892324149356, 0.5235987755982978165 ) ;
#123 = APPLICATION_PROTOCOL_DEFINITION ( 'international standard', 'config_control_design', 1994, #22 ) ;
#124 = DIRECTION ( 'NONE',  ( 0.0000000000000000000, 1.000000000000000000, 0.0000000000000000000 ) ) ;
#125 = APPROVAL_STATUS ( 'not_yet_approved' ) ;
#126 = DIRECTION ( 'NONE',  ( -3.491481338843133355E-15, -5.221231740601018258E-16, -1.000000000000000000 ) ) ;
#127 = DIRECTION ( 'NONE',  ( 0.0000000000000000000, 1.000000000000000000, 0.0000000000000000000 ) ) ;
#128 = CARTESIAN_POINT ( 'NONE',  ( 0.0000000000000000000, 0.0000000000000000000, 0.0000000000000000000 ) ) ;
#129 = COORDINATED_UNIVERSAL_TIME_OFFSET ( 1, 0, .AHEAD. ) ;
#130 = FACE_OUTER_BOUND ( 'NONE', #192, .T. ) ;
#131 = MANIFOLD_SOLID_BREP ( 'Corps-Déplacer/Copier1[1]', #209 ) ;
#132 = APPROVAL_ROLE ( '' ) ;
#133 = AXIS2_PLACEMENT_3D ( 'NONE', #241, #187, #16 ) ;
#134 = COORDINATED_UNIVERSAL_TIME_OFFSET ( 1, 0, .AHEAD. ) ;
#135 = FACE_OUTER_BOUND ( 'NONE', #146, .T. ) ;
#136 = SECURITY_CLASSIFICATION ( '', '', #56 ) ;
#137 = AXIS2_PLACEMENT_3D ( 'NONE', #24, #3, #82 ) ;
#138 = DIRECTION ( 'NONE',  ( 3.491481338843133355E-15, -9.031770143711729009E-17, 1.000000000000000000 ) ) ;
#139 = VERTEX_POINT ( 'NONE', #62 ) ;
#140 = COORDINATED_UNIVERSAL_TIME_OFFSET ( 1, 0, .AHEAD. ) ;
#141 = CC_DESIGN_PERSON_AND_ORGANIZATION_ASSIGNMENT ( #215, #222, ( #79 ) ) ;
#142 = CARTESIAN_POINT ( 'NONE',  ( 2.779219145719134403E-13, -7.189289034394536528E-15, 79.60000000000000853 ) ) ;
#143 = CIRCLE ( 'NONE', #233, 1.599999999999994982 ) ;
#144 = CARTESIAN_POINT ( 'NONE',  ( 2.793185071074506684E-13, -7.225416114969383207E-15, 80.00000000000000000 ) ) ;
#145 = APPROVAL_DATE_TIME ( #68, #201 ) ;
#146 = EDGE_LOOP ( 'NONE', ( #217 ) ) ;
#147 = ADVANCED_FACE ( 'NONE', ( #135 ), #61, .T. ) ;
#148 = ORIENTED_EDGE ( 'NONE', *, *, #97, .F. ) ;
#149 = AXIS2_PLACEMENT_3D ( 'NONE', #128, #10, #211 ) ;
#150 = CC_DESIGN_APPROVAL ( #72, ( #118 ) ) ;
#151 = PERSON_AND_ORGANIZATION ( #213, #29 ) ;
#152 = CARTESIAN_POINT ( 'NONE',  ( 4.885231259955590439E-14, 1.999999999999990452, 13.99185842870425134 ) ) ;
#153 = CIRCLE ( 'NONE', #171, 1.999999999999991784 ) ;
#154 = PLANE ( 'NONE',  #234 ) ;
#155 = CARTESIAN_POINT ( 'NONE',  ( 2.793185071074506684E-13, 1.599999999999987876, 80.00000000000000000 ) ) ;
#156 = AXIS2_PLACEMENT_3D ( 'NONE', #64, #138, #46 ) ;
#157 = APPLICATION_PROTOCOL_DEFINITION ( 'international standard', 'config_control_design', 1994, #77 ) ;
#158 = EDGE_CURVE ( 'NONE', #169, #169, #99, .T. ) ;
#159 = ORIENTED_EDGE ( 'NONE', *, *, #83, .F. ) ;
#160 = PRODUCT_DEFINITION_SHAPE ( 'NONE', 'NONE',  #118 ) ;
#161 = EDGE_LOOP ( 'NONE', ( #239 ) ) ;
#162 = DATE_AND_TIME ( #26, #189 ) ;
#163 = DIRECTION ( 'NONE',  ( 0.0000000000000000000, 1.000000000000000000, 0.0000000000000000000 ) ) ;
#164 = ORIENTED_EDGE ( 'NONE', *, *, #116, .T. ) ;
#165 = APPROVAL_DATE_TIME ( #93, #78 ) ;
#166 = ORIENTED_EDGE ( 'NONE', *, *, #58, .T. ) ;
#167 = DIRECTION ( 'NONE',  ( -3.491481338843133355E-15, -5.221231740601018258E-16, -1.000000000000000000 ) ) ;
#168 = DIRECTION ( 'NONE',  ( -1.822983318808390767E-30, 1.000000000000000000, -5.221231740601018258E-16 ) ) ;
#169 = VERTEX_POINT ( 'NONE', #81 ) ;
#170 = DATE_TIME_ROLE ( 'classification_date' ) ;
#171 = AXIS2_PLACEMENT_3D ( 'NONE', #63, #212, #127 ) ;
#172 = FACE_OUTER_BOUND ( 'NONE', #52, .T. ) ;
#173 = VERTEX_POINT ( 'NONE', #25 ) ;
#174 = AXIS2_PLACEMENT_3D ( 'NONE', #117, #103, #39 ) ;
#175 = COORDINATED_UNIVERSAL_TIME_OFFSET ( 1, 0, .AHEAD. ) ;
#176 = ORIENTED_EDGE ( 'NONE', *, *, #158, .T. ) ;
#177 = CALENDAR_DATE ( 2021, 26, 11 ) ;
#178 = CC_DESIGN_PERSON_AND_ORGANIZATION_ASSIGNMENT ( #40, #15, ( #79 ) ) ;
#179 = DIRECTION ( 'NONE',  ( 1.000000000000000000, 0.0000000000000000000, 0.0000000000000000000 ) ) ;
#180 = FACE_OUTER_BOUND ( 'NONE', #161, .T. ) ;
#181 = CIRCLE ( 'NONE', #71, 2.473059892324149356 ) ;
#182 = PERSON_AND_ORGANIZATION ( #213, #29 ) ;
#183 = DIRECTION ( 'NONE',  ( 0.0000000000000000000, 1.000000000000000000, 0.0000000000000000000 ) ) ;
#184 = ADVANCED_FACE ( 'NONE', ( #55, #190 ), #228, .T. ) ;
#185 = DATE_AND_TIME ( #17, #38 ) ;
#186 = ADVANCED_FACE ( 'NONE', ( #101, #191 ), #122, .T. ) ;
#187 = DIRECTION ( 'NONE',  ( -3.491481338843133355E-15, 9.031770143711729009E-17, -1.000000000000000000 ) ) ;
#188 = AXIS2_PLACEMENT_3D ( 'NONE', #196, #105, #13 ) ;
#189 = LOCAL_TIME ( 11, 3, 53.00000000000000000, #140 ) ;
#190 = FACE_OUTER_BOUND ( 'NONE', #107, .T. ) ;
#191 = FACE_BOUND ( 'NONE', #54, .T. ) ;
#192 = EDGE_LOOP ( 'NONE', ( #176 ) ) ;
#193 = APPROVAL_STATUS ( 'not_yet_approved' ) ;
#194 = CARTESIAN_POINT ( 'NONE',  ( 4.508346930120998884E-30, 6.741873091891812339E-31, 1.291241880621018432E-15 ) ) ;
#195 = COORDINATED_UNIVERSAL_TIME_OFFSET ( 1, 0, .AHEAD. ) ;
#196 = CARTESIAN_POINT ( 'NONE',  ( -2.254173465060499442E-30, 2.473059892324149356, -6.456209403105092162E-16 ) ) ;
#197 = CARTESIAN_POINT ( 'NONE',  ( 4.459492675647713538E-14, 6.668815452636654959E-15, 12.77249466017573276 ) ) ;
#198 = LOCAL_TIME ( 11, 3, 53.00000000000000000, #129 ) ;
#199 = DIRECTION ( 'NONE',  ( -3.491481338843133355E-15, 9.031770143711729009E-17, -1.000000000000000000 ) ) ;
#200 = AXIS2_PLACEMENT_3D ( 'NONE', #142, #50, #124 ) ;
#201 = APPROVAL ( #125, 'UNSPECIFIED' ) ;
#202 = AXIS2_PLACEMENT_3D ( 'NONE', #113, #218, #57 ) ;
#203 = CARTESIAN_POINT ( 'NONE',  ( 1.396592535537253145E-15, 2.703999999999998849, 0.3999999999999999667 ) ) ;
#204 = PLANE ( 'NONE',  #156 ) ;
#205 = CC_DESIGN_SECURITY_CLASSIFICATION ( #136, ( #79 ) ) ;
#206 = ADVANCED_FACE ( 'NONE', ( #172 ), #204, .T. ) ;
#207 = VERTEX_POINT ( 'NONE', #203 ) ;
#208 = FACE_OUTER_BOUND ( 'NONE', #32, .T. ) ;
#209 = CLOSED_SHELL ( 'NONE', ( #206, #66, #33, #184, #147 ) ) ;
#210 = PERSON_AND_ORGANIZATION_ROLE ( 'design_owner' ) ;
#211 = DIRECTION ( 'NONE',  ( 3.153425691349006731E-31, 1.000000000000000000, 9.031770143711729009E-17 ) ) ;
#212 = DIRECTION ( 'NONE',  ( -3.491481338843133355E-15, 9.031770143711729009E-17, -1.000000000000000000 ) ) ;
#213 = PERSON ( 'UNSPECIFIED', 'UNSPECIFIED', 'UNSPECIFIED', ('UNSPECIFIED'), ('UNSPECIFIED'), ('UNSPECIFIED') ) ;
#214 = EDGE_LOOP ( 'NONE', ( #166 ) ) ;
#215 = PERSON_AND_ORGANIZATION ( #213, #29 ) ;
#216 = CC_DESIGN_APPROVAL ( #201, ( #79 ) ) ;
#217 = ORIENTED_EDGE ( 'NONE', *, *, #9, .T. ) ;
#218 = DIRECTION ( 'NONE',  ( -3.491481338843133355E-15, -5.221231740601018258E-16, -1.000000000000000000 ) ) ;
#219 = APPROVAL_STATUS ( 'not_yet_approved' ) ;
#220 = DIRECTION ( 'NONE',  ( -3.491481338843133355E-15, 9.031770143711729009E-17, -1.000000000000000000 ) ) ;
#221 = ADVANCED_FACE ( 'NONE', ( #21 ), #154, .T. ) ;
#222 = PERSON_AND_ORGANIZATION_ROLE ( 'design_supplier' ) ;
#223 = CC_DESIGN_DATE_AND_TIME_ASSIGNMENT ( #185, #170, ( #136 ) ) ;
#224 = CLOSED_SHELL ( 'NONE', ( #221, #95, #186, #1 ) ) ;
#225 = DIRECTION ( 'NONE',  ( 1.822983318808390767E-30, -1.000000000000000000, 5.221231740601018258E-16 ) ) ;
#226 = CC_DESIGN_APPROVAL ( #78, ( #136 ) ) ;
#227 = PRODUCT_RELATED_PRODUCT_CATEGORY ( 'detail', '', ( #231 ) ) ;
#228 = CONICAL_SURFACE ( 'NONE', #174, 2.703999999999999737, 0.5235987755982924874 ) ;
#229 = APPROVAL_ROLE ( '' ) ;
#230 = CYLINDRICAL_SURFACE ( 'NONE', #149, 1.999999999999993561 ) ;
#231 = PRODUCT ( '321444', '321444', '', ( #34 ) ) ;
#232 = PLANE ( 'NONE',  #188 ) ;
#233 = AXIS2_PLACEMENT_3D ( 'NONE', #144, #199, #183 ) ;
#234 = AXIS2_PLACEMENT_3D ( 'NONE', #100, #119, #225 ) ;
#235 = APPROVAL_ROLE ( '' ) ;
#236 = EDGE_LOOP ( 'NONE', ( #164 ) ) ;
#237 = ORIENTED_EDGE ( 'NONE', *, *, #48, .F. ) ;
#238 = SHAPE_DEFINITION_REPRESENTATION ( #160, #80 ) ;
#239 = ORIENTED_EDGE ( 'NONE', *, *, #158, .F. ) ;
#240 = DIRECTION ( 'NONE',  ( -1.851855715756958225E-30, 1.000000000000000000, -5.212510444641850137E-16 ) ) ;
#241 = CARTESIAN_POINT ( 'NONE',  ( 4.459492675647712907E-14, 2.703999999999998405, 12.77249466017572921 ) ) ;
#242 = AXIS2_PLACEMENT_3D ( 'NONE', #49, #5, #179 ) ;
#243 = FACE_OUTER_BOUND ( 'NONE', #69, .T. ) ;
ENDSEC;
END-ISO-10303-21;
