ISO-10303-21;
HEADER;
FILE_DESCRIPTION (( 'STEP AP203' ),
    '1' );
FILE_NAME ('321443.step',
    '2021-11-26T10:03:52',
    ( '' ),
    ( '' ),
    'SwSTEP 2.0',
    'SolidWorks 2019',
    '' );
FILE_SCHEMA (( 'CONFIG_CONTROL_DESIGN' ));
ENDSEC;

DATA;
#1 = DESIGN_CONTEXT ( 'detailed design', #220, 'design' ) ;
#2 = CARTESIAN_POINT ( 'NONE',  ( 0.0000000000000000000, 0.0000000000000000000, 0.0000000000000000000 ) ) ;
#3 = AXIS2_PLACEMENT_3D ( 'NONE', #243, #197, #164 ) ;
#4 = CARTESIAN_POINT ( 'NONE',  ( 0.0000000000000000000, 0.0000000000000000000, 0.0000000000000000000 ) ) ;
#5 = PLANE ( 'NONE',  #213 ) ;
#6 = CARTESIAN_POINT ( 'NONE',  ( 4.462516387183989781E-14, 2.698999999999998067, 12.78115491421357319 ) ) ;
#7 = ORIENTED_EDGE ( 'NONE', *, *, #12, .F. ) ;
#8 = DATE_AND_TIME ( #173, #240 ) ;
#9 = CC_DESIGN_PERSON_AND_ORGANIZATION_ASSIGNMENT ( #66, #11, ( #149 ) ) ;
#10 = ORIENTED_EDGE ( 'NONE', *, *, #46, .T. ) ;
#11 = PERSON_AND_ORGANIZATION_ROLE ( 'creator' ) ;
#12 = EDGE_CURVE ( 'NONE', #99, #99, #178, .T. ) ;
#13 = APPROVAL_STATUS ( 'not_yet_approved' ) ;
#14 = CLOSED_SHELL ( 'NONE', ( #200, #210, #198, #142 ) ) ;
#15 = FACE_OUTER_BOUND ( 'NONE', #33, .T. ) ;
#16 = AXIS2_PLACEMENT_3D ( 'NONE', #56, #94, #202 ) ;
#17 = SHAPE_DEFINITION_REPRESENTATION ( #138, #53 ) ;
#18 = AXIS2_PLACEMENT_3D ( 'NONE', #75, #146, #226 ) ;
#19 = DIRECTION ( 'NONE',  ( 0.0000000000000000000, 1.000000000000000000, 0.0000000000000000000 ) ) ;
#20 = CARTESIAN_POINT ( 'NONE',  ( -2.247376661461942823E-30, 2.468059892324149018, -6.436742583898754193E-16 ) ) ;
#21 = AXIS2_PLACEMENT_3D ( 'NONE', #6, #205, #229 ) ;
#22 = PERSON_AND_ORGANIZATION_ROLE ( 'design_supplier' ) ;
#23 =( LENGTH_UNIT ( ) NAMED_UNIT ( * ) SI_UNIT ( .MILLI., .METRE. ) );
#24 = PERSON_AND_ORGANIZATION ( #204, #87 ) ;
#25 = CC_DESIGN_APPROVAL ( #130, ( #184 ) ) ;
#26 = DIRECTION ( 'NONE',  ( -3.491481338843133355E-15, -5.216034346587378930E-16, -1.000000000000000000 ) ) ;
#27 = CC_DESIGN_PERSON_AND_ORGANIZATION_ASSIGNMENT ( #90, #98, ( #184 ) ) ;
#28 = LOCAL_TIME ( 11, 3, 52.00000000000000000, #143 ) ;
#29 = EDGE_LOOP ( 'NONE', ( #215 ) ) ;
#30 = CIRCLE ( 'NONE', #58, 2.698999999999998511 ) ;
#31 = APPROVAL_STATUS ( 'not_yet_approved' ) ;
#32 = PRODUCT ( '321443', '321443', '', ( #232 ) ) ;
#33 = EDGE_LOOP ( 'NONE', ( #194 ) ) ;
#34 = MANIFOLD_SOLID_BREP ( 'Corps-Déplacer/Copier1[2]', #14 ) ;
#35 = DIRECTION ( 'NONE',  ( -1.821168658387466491E-30, 1.000000000000000000, -5.216034346587378930E-16 ) ) ;
#36 = CIRCLE ( 'NONE', #16, 1.999999999999991784 ) ;
#37 = APPROVAL_PERSON_ORGANIZATION ( #50, #101, #120 ) ;
#38 = CARTESIAN_POINT ( 'NONE',  ( 0.0000000000000000000, 0.0000000000000000000, 0.0000000000000000000 ) ) ;
#39 = DIRECTION ( 'NONE',  ( -2.283429352367237169E-30, 1.000000000000000000, -6.427282237779963952E-16 ) ) ;
#40 = CALENDAR_DATE ( 2021, 26, 11 ) ;
#41 = DIRECTION ( 'NONE',  ( -1.855286348798375755E-30, 1.000000000000000000, -5.222166818196208200E-16 ) ) ;
#42 = DIRECTION ( 'NONE',  ( 0.0000000000000000000, 1.000000000000000000, 0.0000000000000000000 ) ) ;
#43 = CARTESIAN_POINT ( 'NONE',  ( 1.396592535537253145E-15, 2.698999999999998511, 0.3999999999999999667 ) ) ;
#44 = EDGE_CURVE ( 'NONE', #186, #186, #30, .T. ) ;
#45 =( NAMED_UNIT ( * ) PLANE_ANGLE_UNIT ( ) SI_UNIT ( $, .RADIAN. ) );
#46 = EDGE_CURVE ( 'NONE', #211, #211, #36, .T. ) ;
#47 = COORDINATED_UNIVERSAL_TIME_OFFSET ( 1, 0, .AHEAD. ) ;
#48 =( GEOMETRIC_REPRESENTATION_CONTEXT ( 3 ) GLOBAL_UNCERTAINTY_ASSIGNED_CONTEXT ( ( #131 ) ) GLOBAL_UNIT_ASSIGNED_CONTEXT ( ( #23, #45, #63 ) ) REPRESENTATION_CONTEXT ( 'NONE', 'WORKASPACE' ) );
#49 = ORIENTED_EDGE ( 'NONE', *, *, #228, .F. ) ;
#50 = PERSON_AND_ORGANIZATION ( #204, #87 ) ;
#51 = AXIS2_PLACEMENT_3D ( 'NONE', #38, #114, #55 ) ;
#52 = DATE_AND_TIME ( #40, #28 ) ;
#53 = ADVANCED_BREP_SHAPE_REPRESENTATION ( '321443', ( #116, #34, #234 ), #48 ) ;
#54 = PERSON_AND_ORGANIZATION ( #204, #87 ) ;
#55 = DIRECTION ( 'NONE',  ( 3.153425691349006731E-31, 1.000000000000000000, 9.031770143711729009E-17 ) ) ;
#56 = CARTESIAN_POINT ( 'NONE',  ( 4.885231259955590439E-14, -1.263712492114123682E-15, 13.99185842870425134 ) ) ;
#57 = FACE_BOUND ( 'NONE', #72, .T. ) ;
#58 = AXIS2_PLACEMENT_3D ( 'NONE', #159, #225, #41 ) ;
#59 = PERSON_AND_ORGANIZATION_ROLE ( 'classification_officer' ) ;
#60 = AXIS2_PLACEMENT_3D ( 'NONE', #177, #89, #35 ) ;
#61 = CARTESIAN_POINT ( 'NONE',  ( 2.779219145719134403E-13, -7.189289034394536528E-15, 79.60000000000000853 ) ) ;
#62 = VERTEX_POINT ( 'NONE', #235 ) ;
#63 =( NAMED_UNIT ( * ) SI_UNIT ( $, .STERADIAN. ) SOLID_ANGLE_UNIT ( ) );
#64 = CARTESIAN_POINT ( 'NONE',  ( 4.494753322923885645E-30, 6.714854079551498874E-31, 1.287348516779750839E-15 ) ) ;
#65 = EDGE_LOOP ( 'NONE', ( #10 ) ) ;
#66 = PERSON_AND_ORGANIZATION ( #204, #87 ) ;
#67 = CC_DESIGN_SECURITY_CLASSIFICATION ( #118, ( #184 ) ) ;
#68 = APPROVAL_DATE_TIME ( #84, #140 ) ;
#69 = EDGE_CURVE ( 'NONE', #97, #97, #175, .T. ) ;
#70 = COORDINATED_UNIVERSAL_TIME_OFFSET ( 1, 0, .AHEAD. ) ;
#71 = ORIENTED_EDGE ( 'NONE', *, *, #12, .T. ) ;
#72 = EDGE_LOOP ( 'NONE', ( #237 ) ) ;
#73 = EDGE_LOOP ( 'NONE', ( #7 ) ) ;
#74 = AXIS2_PLACEMENT_3D ( 'NONE', #181, #182, #129 ) ;
#75 = CARTESIAN_POINT ( 'NONE',  ( 4.462516387183991043E-14, -1.154364533563486124E-15, 12.78115491421357497 ) ) ;
#76 = FACE_OUTER_BOUND ( 'NONE', #29, .T. ) ;
#77 = FACE_OUTER_BOUND ( 'NONE', #155, .T. ) ;
#78 = CIRCLE ( 'NONE', #148, 2.698999999999999400 ) ;
#79 = FACE_OUTER_BOUND ( 'NONE', #141, .T. ) ;
#80 = DIRECTION ( 'NONE',  ( 0.0000000000000000000, 1.000000000000000000, 0.0000000000000000000 ) ) ;
#81 = CARTESIAN_POINT ( 'NONE',  ( 4.885231259955590439E-14, 1.999999999999990452, 13.99185842870425134 ) ) ;
#82 = DATE_AND_TIME ( #170, #113 ) ;
#83 = ORIENTED_EDGE ( 'NONE', *, *, #228, .T. ) ;
#84 = DATE_AND_TIME ( #190, #115 ) ;
#85 = CONICAL_SURFACE ( 'NONE', #183, 1.999999999999995337, 0.7853981633974516097 ) ;
#86 = ORIENTED_EDGE ( 'NONE', *, *, #193, .T. ) ;
#87 = ORGANIZATION ( 'UNSPECIFIED', 'UNSPECIFIED', '' ) ;
#88 = ORIENTED_EDGE ( 'NONE', *, *, #193, .F. ) ;
#89 = DIRECTION ( 'NONE',  ( -3.491481338843133355E-15, -5.216034346587378930E-16, -1.000000000000000000 ) ) ;
#90 = PERSON_AND_ORGANIZATION ( #204, #87 ) ;
#91 = DIRECTION ( 'NONE',  ( -3.491481338843133355E-15, 9.031770143711729009E-17, -1.000000000000000000 ) ) ;
#92 = PLANE ( 'NONE',  #3 ) ;
#93 = APPROVAL_PERSON_ORGANIZATION ( #158, #140, #105 ) ;
#94 = DIRECTION ( 'NONE',  ( -3.491481338843133355E-15, 9.031770143711729009E-17, -1.000000000000000000 ) ) ;
#95 = SECURITY_CLASSIFICATION_LEVEL ( 'unclassified' ) ;
#96 = APPLICATION_CONTEXT ( 'configuration controlled 3d designs of mechanical parts and assemblies' ) ;
#97 = VERTEX_POINT ( 'NONE', #231 ) ;
#98 = PERSON_AND_ORGANIZATION_ROLE ( 'creator' ) ;
#99 = VERTEX_POINT ( 'NONE', #134 ) ;
#100 = APPROVAL_STATUS ( 'not_yet_approved' ) ;
#101 = APPROVAL ( #100, 'UNSPECIFIED' ) ;
#102 = AXIS2_PLACEMENT_3D ( 'NONE', #64, #168, #103 ) ;
#103 = DIRECTION ( 'NONE',  ( 1.821168658387466491E-30, -1.000000000000000000, 5.216034346587378930E-16 ) ) ;
#104 = COORDINATED_UNIVERSAL_TIME_OFFSET ( 1, 0, .AHEAD. ) ;
#105 = APPROVAL_ROLE ( '' ) ;
#106 = CC_DESIGN_DATE_AND_TIME_ASSIGNMENT ( #8, #109, ( #118 ) ) ;
#107 = ORIENTED_EDGE ( 'NONE', *, *, #119, .F. ) ;
#108 = EDGE_LOOP ( 'NONE', ( #86 ) ) ;
#109 = DATE_TIME_ROLE ( 'classification_date' ) ;
#110 = CALENDAR_DATE ( 2021, 26, 11 ) ;
#111 = FACE_OUTER_BOUND ( 'NONE', #174, .T. ) ;
#112 = APPROVAL_ROLE ( '' ) ;
#113 = LOCAL_TIME ( 11, 3, 52.00000000000000000, #104 ) ;
#114 = DIRECTION ( 'NONE',  ( -3.491481338843133355E-15, 9.031770143711729009E-17, -1.000000000000000000 ) ) ;
#115 = LOCAL_TIME ( 11, 3, 52.00000000000000000, #47 ) ;
#116 = MANIFOLD_SOLID_BREP ( 'Corps-Déplacer/Copier1[1]', #126 ) ;
#117 = CARTESIAN_POINT ( 'NONE',  ( 4.462516387183991043E-14, 2.698999999999998067, 12.78115491421357497 ) ) ;
#118 = SECURITY_CLASSIFICATION ( '', '', #95 ) ;
#119 = EDGE_CURVE ( 'NONE', #136, #136, #78, .T. ) ;
#120 = APPROVAL_ROLE ( '' ) ;
#121 = EDGE_LOOP ( 'NONE', ( #88 ) ) ;
#122 = COORDINATED_UNIVERSAL_TIME_OFFSET ( 1, 0, .AHEAD. ) ;
#123 = ADVANCED_FACE ( 'NONE', ( #162, #76 ), #199, .T. ) ;
#124 = DATE_AND_TIME ( #110, #195 ) ;
#125 = CARTESIAN_POINT ( 'NONE',  ( 4.462516387183991043E-14, -1.154364533563486124E-15, 12.78115491421357497 ) ) ;
#126 = CLOSED_SHELL ( 'NONE', ( #157, #192, #123, #171, #219 ) ) ;
#127 = CARTESIAN_POINT ( 'NONE',  ( 4.462516387183991674E-14, 6.666694302159208026E-15, 12.78115491421357675 ) ) ;
#128 = FACE_BOUND ( 'NONE', #65, .T. ) ;
#129 = DIRECTION ( 'NONE',  ( 0.0000000000000000000, 1.000000000000000000, 0.0000000000000000000 ) ) ;
#130 = APPROVAL ( #13, 'UNSPECIFIED' ) ;
#131 = UNCERTAINTY_MEASURE_WITH_UNIT (LENGTH_MEASURE( 1.000000000000000082E-05 ), #23, 'distance_accuracy_value', 'NONE');
#132 = FACE_OUTER_BOUND ( 'NONE', #239, .T. ) ;
#133 = CARTESIAN_POINT ( 'NONE',  ( 4.462516387183989781E-14, 6.666694302159204870E-15, 12.78115491421357319 ) ) ;
#134 = CARTESIAN_POINT ( 'NONE',  ( 4.462516387183991043E-14, 2.698999999999998067, 12.78115491421357497 ) ) ;
#135 = PRODUCT_RELATED_PRODUCT_CATEGORY ( 'detail', '', ( #32 ) ) ;
#136 = VERTEX_POINT ( 'NONE', #117 ) ;
#137 = CONICAL_SURFACE ( 'NONE', #18, 2.698999999999999400, 0.5235987755982925984 ) ;
#138 = PRODUCT_DEFINITION_SHAPE ( 'NONE', 'NONE',  #149 ) ;
#139 = FACE_OUTER_BOUND ( 'NONE', #73, .T. ) ;
#140 = APPROVAL ( #31, 'UNSPECIFIED' ) ;
#141 = EDGE_LOOP ( 'NONE', ( #191 ) ) ;
#142 = ADVANCED_FACE ( 'NONE', ( #145 ), #180, .T. ) ;
#143 = COORDINATED_UNIVERSAL_TIME_OFFSET ( 1, 0, .AHEAD. ) ;
#144 = DIRECTION ( 'NONE',  ( -3.491481338843133355E-15, -5.216034346587378930E-16, -1.000000000000000000 ) ) ;
#145 = FACE_OUTER_BOUND ( 'NONE', #108, .T. ) ;
#146 = DIRECTION ( 'NONE',  ( -3.491481338843133355E-15, 9.031770143711729009E-17, -1.000000000000000000 ) ) ;
#147 = DIRECTION ( 'NONE',  ( 1.000000000000000000, 0.0000000000000000000, 0.0000000000000000000 ) ) ;
#148 = AXIS2_PLACEMENT_3D ( 'NONE', #125, #221, #19 ) ;
#149 = PRODUCT_DEFINITION ( 'UNKNOWN', '', #184, #1 ) ;
#150 = CIRCLE ( 'NONE', #216, 1.999999999999995337 ) ;
#151 = PLANE ( 'NONE',  #21 ) ;
#152 = DIRECTION ( 'NONE',  ( 3.491481338843133355E-15, 5.216034346587378930E-16, 1.000000000000000000 ) ) ;
#153 = VERTEX_POINT ( 'NONE', #206 ) ;
#154 = EDGE_LOOP ( 'NONE', ( #107 ) ) ;
#155 = EDGE_LOOP ( 'NONE', ( #172 ) ) ;
#156 = EDGE_LOOP ( 'NONE', ( #83 ) ) ;
#157 = ADVANCED_FACE ( 'NONE', ( #15 ), #92, .T. ) ;
#158 = PERSON_AND_ORGANIZATION ( #204, #87 ) ;
#159 = CARTESIAN_POINT ( 'NONE',  ( 1.396592535537258075E-15, 2.086413738634958820E-16, 0.4000000000000013545 ) ) ;
#160 = AXIS2_PLACEMENT_3D ( 'NONE', #4, #26, #189 ) ;
#161 = DATE_TIME_ROLE ( 'creation_date' ) ;
#162 = FACE_OUTER_BOUND ( 'NONE', #156, .T. ) ;
#163 = CC_DESIGN_DATE_AND_TIME_ASSIGNMENT ( #124, #161, ( #149 ) ) ;
#164 = DIRECTION ( 'NONE',  ( -3.153425691349006731E-31, -1.000000000000000000, -9.031770143711729009E-17 ) ) ;
#165 = DIRECTION ( 'NONE',  ( -3.491481338843133355E-15, -5.216034346587378930E-16, -1.000000000000000000 ) ) ;
#166 = DIRECTION ( 'NONE',  ( -1.821168658387466841E-30, 1.000000000000000000, -5.216034346587378930E-16 ) ) ;
#167 = CC_DESIGN_APPROVAL ( #101, ( #118 ) ) ;
#168 = DIRECTION ( 'NONE',  ( 3.491481338843133355E-15, 5.216034346587378930E-16, 1.000000000000000000 ) ) ;
#169 = DIRECTION ( 'NONE',  ( -3.491481338843133355E-15, 9.031770143711729009E-17, -1.000000000000000000 ) ) ;
#170 = CALENDAR_DATE ( 2021, 26, 11 ) ;
#171 = ADVANCED_FACE ( 'NONE', ( #128, #242 ), #137, .T. ) ;
#172 = ORIENTED_EDGE ( 'NONE', *, *, #44, .F. ) ;
#173 = CALENDAR_DATE ( 2021, 26, 11 ) ;
#174 = EDGE_LOOP ( 'NONE', ( #212 ) ) ;
#175 = CIRCLE ( 'NONE', #74, 1.599999999999994982 ) ;
#176 = APPROVAL_DATE_TIME ( #82, #101 ) ;
#177 = CARTESIAN_POINT ( 'NONE',  ( 4.494753322923885645E-30, 6.714854079551498874E-31, 1.287348516779750839E-15 ) ) ;
#178 = CIRCLE ( 'NONE', #222, 2.698999999999991850 ) ;
#179 = FACE_BOUND ( 'NONE', #121, .T. ) ;
#180 = PLANE ( 'NONE',  #233 ) ;
#181 = CARTESIAN_POINT ( 'NONE',  ( 2.793185071074506684E-13, -7.225416114969383207E-15, 80.00000000000000000 ) ) ;
#182 = DIRECTION ( 'NONE',  ( -3.491481338843133355E-15, 9.031770143711729009E-17, -1.000000000000000000 ) ) ;
#183 = AXIS2_PLACEMENT_3D ( 'NONE', #203, #91, #42 ) ;
#184 = PRODUCT_DEFINITION_FORMATION_WITH_SPECIFIED_SOURCE ( 'ANY', '', #32, .NOT_KNOWN. ) ;
#185 = DIRECTION ( 'NONE',  ( 1.821168658387466841E-30, -1.000000000000000000, 5.216034346587378930E-16 ) ) ;
#186 = VERTEX_POINT ( 'NONE', #43 ) ;
#187 = APPLICATION_PROTOCOL_DEFINITION ( 'international standard', 'config_control_design', 1994, #96 ) ;
#188 = DIRECTION ( 'NONE',  ( 0.0000000000000000000, 0.0000000000000000000, 1.000000000000000000 ) ) ;
#189 = DIRECTION ( 'NONE',  ( -1.821168658387466841E-30, 1.000000000000000000, -5.216034346587378930E-16 ) ) ;
#190 = CALENDAR_DATE ( 2021, 26, 11 ) ;
#191 = ORIENTED_EDGE ( 'NONE', *, *, #119, .T. ) ;
#192 = ADVANCED_FACE ( 'NONE', ( #57, #132 ), #85, .T. ) ;
#193 = EDGE_CURVE ( 'NONE', #153, #153, #223, .T. ) ;
#194 = ORIENTED_EDGE ( 'NONE', *, *, #69, .F. ) ;
#195 = LOCAL_TIME ( 11, 3, 52.00000000000000000, #70 ) ;
#196 = CC_DESIGN_PERSON_AND_ORGANIZATION_ASSIGNMENT ( #230, #59, ( #118 ) ) ;
#197 = DIRECTION ( 'NONE',  ( 3.491481338843133355E-15, -9.031770143711729009E-17, 1.000000000000000000 ) ) ;
#198 = ADVANCED_FACE ( 'NONE', ( #111, #179 ), #201, .T. ) ;
#199 = CYLINDRICAL_SURFACE ( 'NONE', #51, 1.999999999999993561 ) ;
#200 = ADVANCED_FACE ( 'NONE', ( #139 ), #5, .T. ) ;
#201 = CONICAL_SURFACE ( 'NONE', #102, 2.468059892324149018, 0.5235987755982978165 ) ;
#202 = DIRECTION ( 'NONE',  ( 0.0000000000000000000, 1.000000000000000000, 0.0000000000000000000 ) ) ;
#203 = CARTESIAN_POINT ( 'NONE',  ( 2.779219145719134403E-13, -7.189289034394536528E-15, 79.60000000000000853 ) ) ;
#204 = PERSON ( 'UNSPECIFIED', 'UNSPECIFIED', 'UNSPECIFIED', ('UNSPECIFIED'), ('UNSPECIFIED'), ('UNSPECIFIED') ) ;
#205 = DIRECTION ( 'NONE',  ( -3.491481338843133355E-15, 9.031770143711729009E-17, -1.000000000000000000 ) ) ;
#206 = CARTESIAN_POINT ( 'NONE',  ( 0.0000000000000000000, 2.468059892324149018, 0.0000000000000000000 ) ) ;
#207 = PERSON_AND_ORGANIZATION ( #204, #87 ) ;
#208 = PERSON_AND_ORGANIZATION_ROLE ( 'design_owner' ) ;
#209 = CYLINDRICAL_SURFACE ( 'NONE', #160, 2.698999999999995403 ) ;
#210 = ADVANCED_FACE ( 'NONE', ( #227, #77 ), #209, .T. ) ;
#211 = VERTEX_POINT ( 'NONE', #81 ) ;
#212 = ORIENTED_EDGE ( 'NONE', *, *, #44, .T. ) ;
#213 = AXIS2_PLACEMENT_3D ( 'NONE', #133, #152, #185 ) ;
#214 = APPLICATION_PROTOCOL_DEFINITION ( 'international standard', 'config_control_design', 1994, #220 ) ;
#215 = ORIENTED_EDGE ( 'NONE', *, *, #46, .F. ) ;
#216 = AXIS2_PLACEMENT_3D ( 'NONE', #61, #169, #80 ) ;
#217 = EDGE_LOOP ( 'NONE', ( #71 ) ) ;
#218 = APPROVAL_DATE_TIME ( #52, #130 ) ;
#219 = ADVANCED_FACE ( 'NONE', ( #79 ), #151, .T. ) ;
#220 = APPLICATION_CONTEXT ( 'configuration controlled 3d designs of mechanical parts and assemblies' ) ;
#221 = DIRECTION ( 'NONE',  ( -3.491481338843133355E-15, 9.031770143711729009E-17, -1.000000000000000000 ) ) ;
#222 = AXIS2_PLACEMENT_3D ( 'NONE', #127, #165, #39 ) ;
#223 = CIRCLE ( 'NONE', #60, 2.468059892324149018 ) ;
#224 = CC_DESIGN_APPROVAL ( #140, ( #149 ) ) ;
#225 = DIRECTION ( 'NONE',  ( -3.491481338843133355E-15, -5.216034346587378930E-16, -1.000000000000000000 ) ) ;
#226 = DIRECTION ( 'NONE',  ( 0.0000000000000000000, 1.000000000000000000, 0.0000000000000000000 ) ) ;
#227 = FACE_OUTER_BOUND ( 'NONE', #217, .T. ) ;
#228 = EDGE_CURVE ( 'NONE', #62, #62, #150, .T. ) ;
#229 = DIRECTION ( 'NONE',  ( 3.153425691349006731E-31, 1.000000000000000000, 9.031770143711729009E-17 ) ) ;
#230 = PERSON_AND_ORGANIZATION ( #204, #87 ) ;
#231 = CARTESIAN_POINT ( 'NONE',  ( 2.793185071074506684E-13, 1.599999999999987876, 80.00000000000000000 ) ) ;
#232 = MECHANICAL_CONTEXT ( 'NONE', #96, 'mechanical' ) ;
#233 = AXIS2_PLACEMENT_3D ( 'NONE', #20, #144, #166 ) ;
#234 = AXIS2_PLACEMENT_3D ( 'NONE', #2, #188, #147 ) ;
#235 = CARTESIAN_POINT ( 'NONE',  ( 2.779219145719134403E-13, 1.999999999999988010, 79.60000000000000853 ) ) ;
#236 = APPROVAL_PERSON_ORGANIZATION ( #54, #130, #112 ) ;
#237 = ORIENTED_EDGE ( 'NONE', *, *, #69, .T. ) ;
#238 = CC_DESIGN_PERSON_AND_ORGANIZATION_ASSIGNMENT ( #207, #22, ( #184 ) ) ;
#239 = EDGE_LOOP ( 'NONE', ( #49 ) ) ;
#240 = LOCAL_TIME ( 11, 3, 52.00000000000000000, #122 ) ;
#241 = CC_DESIGN_PERSON_AND_ORGANIZATION_ASSIGNMENT ( #24, #208, ( #32 ) ) ;
#242 = FACE_OUTER_BOUND ( 'NONE', #154, .T. ) ;
#243 = CARTESIAN_POINT ( 'NONE',  ( 2.793185071074506684E-13, -7.225416114969383207E-15, 80.00000000000000000 ) ) ;
ENDSEC;
END-ISO-10303-21;
