ISO-10303-21;
HEADER;
FILE_DESCRIPTION (( 'STEP AP203' ),
    '1' );
FILE_NAME ('321442.step',
    '2021-11-26T10:03:52',
    ( '' ),
    ( '' ),
    'SwSTEP 2.0',
    'SolidWorks 2019',
    '' );
FILE_SCHEMA (( 'CONFIG_CONTROL_DESIGN' ));
ENDSEC;

DATA;
#1 = DIRECTION ( 'NONE',  ( -3.491481338843133355E-15, 9.031770143711729009E-17, -1.000000000000000000 ) ) ;
#2 = CARTESIAN_POINT ( 'NONE',  ( 4.465540098720268547E-14, -1.155146707802045815E-15, 12.78981516825142073 ) ) ;
#3 = APPROVAL ( #48, 'UNSPECIFIED' ) ;
#4 = CARTESIAN_POINT ( 'NONE',  ( 4.465540098720269178E-14, 6.664573151681750838E-15, 12.78981516825142251 ) ) ;
#5 = CYLINDRICAL_SURFACE ( 'NONE', #223, 2.693999999999994621 ) ;
#6 = DIRECTION ( 'NONE',  ( -3.491481338843133355E-15, -5.210843991104296361E-16, -1.000000000000000000 ) ) ;
#7 = DIRECTION ( 'NONE',  ( 3.153425691349006731E-31, 1.000000000000000000, 9.031770143711729009E-17 ) ) ;
#8 = AXIS2_PLACEMENT_3D ( 'NONE', #4, #10, #23 ) ;
#9 = ADVANCED_BREP_SHAPE_REPRESENTATION ( '321442', ( #42, #45, #217 ), #212 ) ;
#10 = DIRECTION ( 'NONE',  ( -3.491481338843133355E-15, -5.210843991104296361E-16, -1.000000000000000000 ) ) ;
#11 = FACE_OUTER_BOUND ( 'NONE', #240, .T. ) ;
#12 = DATE_AND_TIME ( #114, #192 ) ;
#13 = APPROVAL_ROLE ( '' ) ;
#14 = DATE_TIME_ROLE ( 'classification_date' ) ;
#15 = AXIS2_PLACEMENT_3D ( 'NONE', #28, #158, #90 ) ;
#16 = DESIGN_CONTEXT ( 'detailed design', #242, 'design' ) ;
#17 = CONICAL_SURFACE ( 'NONE', #100, 2.463059892324147793, 0.5235987755982978165 ) ;
#18 = APPROVAL_PERSON_ORGANIZATION ( #171, #57, #147 ) ;
#19 = EDGE_LOOP ( 'NONE', ( #83 ) ) ;
#20 = CC_DESIGN_APPROVAL ( #3, ( #82 ) ) ;
#21 = EDGE_LOOP ( 'NONE', ( #239 ) ) ;
#22 = CC_DESIGN_PERSON_AND_ORGANIZATION_ASSIGNMENT ( #238, #94, ( #125 ) ) ;
#23 = DIRECTION ( 'NONE',  ( -2.287667342998950973E-30, 1.000000000000000000, -6.439211120923580165E-16 ) ) ;
#24 = ORIENTED_EDGE ( 'NONE', *, *, #228, .T. ) ;
#25 = DIRECTION ( 'NONE',  ( -1.819356455456352444E-30, 1.000000000000000000, -5.210843991104296361E-16 ) ) ;
#26 = ADVANCED_FACE ( 'NONE', ( #143, #180 ), #5, .T. ) ;
#27 = CARTESIAN_POINT ( 'NONE',  ( 4.465540098720269178E-14, 6.664573151681750838E-15, 12.78981516825142251 ) ) ;
#28 = CARTESIAN_POINT ( 'NONE',  ( 1.396592535537258075E-15, 2.084337596441725841E-16, 0.4000000000000013545 ) ) ;
#29 = CARTESIAN_POINT ( 'NONE',  ( 4.465540098720268547E-14, 2.693999999999998174, 12.78981516825142073 ) ) ;
#30 = ADVANCED_FACE ( 'NONE', ( #51 ), #106, .T. ) ;
#31 = VERTEX_POINT ( 'NONE', #91 ) ;
#32 = VERTEX_POINT ( 'NONE', #145 ) ;
#33 = COORDINATED_UNIVERSAL_TIME_OFFSET ( 1, 0, .AHEAD. ) ;
#34 = APPLICATION_CONTEXT ( 'configuration controlled 3d designs of mechanical parts and assemblies' ) ;
#35 = APPROVAL_STATUS ( 'not_yet_approved' ) ;
#36 = LOCAL_TIME ( 11, 3, 52.00000000000000000, #220 ) ;
#37 = CARTESIAN_POINT ( 'NONE',  ( 2.793185071074506684E-13, -7.225416114969383207E-15, 80.00000000000000000 ) ) ;
#38 = CALENDAR_DATE ( 2021, 26, 11 ) ;
#39 = APPROVAL_DATE_TIME ( #69, #3 ) ;
#40 = EDGE_CURVE ( 'NONE', #160, #160, #191, .T. ) ;
#41 = CONICAL_SURFACE ( 'NONE', #119, 1.999999999999995337, 0.7853981633974516097 ) ;
#42 = MANIFOLD_SOLID_BREP ( 'Corps-Déplacer/Copier1[1]', #231 ) ;
#43 = LOCAL_TIME ( 11, 3, 52.00000000000000000, #174 ) ;
#44 = ORIENTED_EDGE ( 'NONE', *, *, #46, .T. ) ;
#45 = MANIFOLD_SOLID_BREP ( 'Corps-Déplacer/Copier1[2]', #129 ) ;
#46 = EDGE_CURVE ( 'NONE', #31, #31, #205, .T. ) ;
#47 = CARTESIAN_POINT ( 'NONE',  ( 4.465540098720268547E-14, 2.693999999999998174, 12.78981516825142073 ) ) ;
#48 = APPROVAL_STATUS ( 'not_yet_approved' ) ;
#49 = EDGE_LOOP ( 'NONE', ( #24 ) ) ;
#50 = APPLICATION_PROTOCOL_DEFINITION ( 'international standard', 'config_control_design', 1994, #34 ) ;
#51 = FACE_OUTER_BOUND ( 'NONE', #237, .T. ) ;
#52 = PRODUCT_RELATED_PRODUCT_CATEGORY ( 'detail', '', ( #125 ) ) ;
#53 = CARTESIAN_POINT ( 'NONE',  ( 0.0000000000000000000, 0.0000000000000000000, 0.0000000000000000000 ) ) ;
#54 = FACE_BOUND ( 'NONE', #70, .T. ) ;
#55 = CARTESIAN_POINT ( 'NONE',  ( 1.396592535537253342E-15, 2.693999999999997730, 0.3999999999999999667 ) ) ;
#56 = SECURITY_CLASSIFICATION_LEVEL ( 'unclassified' ) ;
#57 = APPROVAL ( #153, 'UNSPECIFIED' ) ;
#58 = MECHANICAL_CONTEXT ( 'NONE', #34, 'mechanical' ) ;
#59 = CARTESIAN_POINT ( 'NONE',  ( 0.0000000000000000000, 0.0000000000000000000, 0.0000000000000000000 ) ) ;
#60 = DIRECTION ( 'NONE',  ( 3.491481338843133355E-15, 5.210843991104296361E-16, 1.000000000000000000 ) ) ;
#61 = ADVANCED_FACE ( 'NONE', ( #120 ), #229, .T. ) ;
#62 = CYLINDRICAL_SURFACE ( 'NONE', #141, 1.999999999999993561 ) ;
#63 = APPROVAL_ROLE ( '' ) ;
#64 = EDGE_LOOP ( 'NONE', ( #139 ) ) ;
#65 = SHAPE_DEFINITION_REPRESENTATION ( #68, #9 ) ;
#66 = ORIENTED_EDGE ( 'NONE', *, *, #154, .T. ) ;
#67 = ORIENTED_EDGE ( 'NONE', *, *, #74, .T. ) ;
#68 = PRODUCT_DEFINITION_SHAPE ( 'NONE', 'NONE',  #216 ) ;
#69 = DATE_AND_TIME ( #226, #43 ) ;
#70 = EDGE_LOOP ( 'NONE', ( #44 ) ) ;
#71 = CONICAL_SURFACE ( 'NONE', #201, 2.693999999999999506, 0.5235987755982927094 ) ;
#72 = APPROVAL_PERSON_ORGANIZATION ( #169, #3, #63 ) ;
#73 =( NAMED_UNIT ( * ) PLANE_ANGLE_UNIT ( ) SI_UNIT ( $, .RADIAN. ) );
#74 = EDGE_CURVE ( 'NONE', #32, #32, #163, .T. ) ;
#75 = DIRECTION ( 'NONE',  ( -3.491481338843133355E-15, -5.210843991104296361E-16, -1.000000000000000000 ) ) ;
#76 = DIRECTION ( 'NONE',  ( -3.153425691349006731E-31, -1.000000000000000000, -9.031770143711729009E-17 ) ) ;
#77 = DIRECTION ( 'NONE',  ( 3.153425691349006731E-31, 1.000000000000000000, 9.031770143711729009E-17 ) ) ;
#78 = DIRECTION ( 'NONE',  ( 0.0000000000000000000, 1.000000000000000000, 0.0000000000000000000 ) ) ;
#79 = DATE_TIME_ROLE ( 'creation_date' ) ;
#80 = ADVANCED_FACE ( 'NONE', ( #96, #150 ), #71, .T. ) ;
#81 = AXIS2_PLACEMENT_3D ( 'NONE', #194, #87, #230 ) ;
#82 = SECURITY_CLASSIFICATION ( '', '', #56 ) ;
#83 = ORIENTED_EDGE ( 'NONE', *, *, #40, .T. ) ;
#84 = PLANE ( 'NONE',  #157 ) ;
#85 = ADVANCED_FACE ( 'NONE', ( #112, #149 ), #17, .T. ) ;
#86 = DIRECTION ( 'NONE',  ( 0.0000000000000000000, 1.000000000000000000, 0.0000000000000000000 ) ) ;
#87 = DIRECTION ( 'NONE',  ( -3.491481338843133355E-15, 9.031770143711729009E-17, -1.000000000000000000 ) ) ;
#88 = CC_DESIGN_SECURITY_CLASSIFICATION ( #82, ( #224 ) ) ;
#89 = CC_DESIGN_DATE_AND_TIME_ASSIGNMENT ( #113, #79, ( #216 ) ) ;
#90 = DIRECTION ( 'NONE',  ( -1.787240111717926452E-30, 1.000000000000000000, -5.231859035750396989E-16 ) ) ;
#91 = CARTESIAN_POINT ( 'NONE',  ( 2.793185071074506684E-13, 1.599999999999987876, 80.00000000000000000 ) ) ;
#92 = AXIS2_PLACEMENT_3D ( 'NONE', #173, #233, #214 ) ;
#93 = CARTESIAN_POINT ( 'NONE',  ( 2.779219145719134403E-13, -7.189289034394536528E-15, 79.60000000000000853 ) ) ;
#94 = PERSON_AND_ORGANIZATION_ROLE ( 'design_owner' ) ;
#95 = DATE_AND_TIME ( #38, #152 ) ;
#96 = FACE_BOUND ( 'NONE', #104, .T. ) ;
#97 = APPROVAL_DATE_TIME ( #95, #108 ) ;
#98 = FACE_OUTER_BOUND ( 'NONE', #101, .T. ) ;
#99 = DIRECTION ( 'NONE',  ( 1.819356455456352444E-30, -1.000000000000000000, 5.210843991104296361E-16 ) ) ;
#100 = AXIS2_PLACEMENT_3D ( 'NONE', #124, #203, #131 ) ;
#101 = EDGE_LOOP ( 'NONE', ( #175 ) ) ;
#102 = ADVANCED_FACE ( 'NONE', ( #98 ), #170, .T. ) ;
#103 = EDGE_LOOP ( 'NONE', ( #116 ) ) ;
#104 = EDGE_LOOP ( 'NONE', ( #67 ) ) ;
#105 = ADVANCED_FACE ( 'NONE', ( #54, #11 ), #41, .T. ) ;
#106 = PLANE ( 'NONE',  #156 ) ;
#107 = DIRECTION ( 'NONE',  ( 0.0000000000000000000, 1.000000000000000000, 0.0000000000000000000 ) ) ;
#108 = APPROVAL ( #35, 'UNSPECIFIED' ) ;
#109 = DIRECTION ( 'NONE',  ( 0.0000000000000000000, 1.000000000000000000, 0.0000000000000000000 ) ) ;
#110 = DATE_AND_TIME ( #204, #36 ) ;
#111 = UNCERTAINTY_MEASURE_WITH_UNIT (LENGTH_MEASURE( 1.000000000000000082E-05 ), #232, 'distance_accuracy_value', 'NONE');
#112 = FACE_OUTER_BOUND ( 'NONE', #155, .T. ) ;
#113 = DATE_AND_TIME ( #185, #137 ) ;
#114 = CALENDAR_DATE ( 2021, 26, 11 ) ;
#115 = ORGANIZATION ( 'UNSPECIFIED', 'UNSPECIFIED', '' ) ;
#116 = ORIENTED_EDGE ( 'NONE', *, *, #40, .F. ) ;
#117 =( NAMED_UNIT ( * ) SI_UNIT ( $, .STERADIAN. ) SOLID_ANGLE_UNIT ( ) );
#118 = AXIS2_PLACEMENT_3D ( 'NONE', #177, #1, #86 ) ;
#119 = AXIS2_PLACEMENT_3D ( 'NONE', #93, #235, #78 ) ;
#120 = FACE_OUTER_BOUND ( 'NONE', #227, .T. ) ;
#121 = ORIENTED_EDGE ( 'NONE', *, *, #190, .T. ) ;
#122 = DIRECTION ( 'NONE',  ( -3.491481338843133355E-15, 9.031770143711729009E-17, -1.000000000000000000 ) ) ;
#123 = CARTESIAN_POINT ( 'NONE',  ( 2.779219145719134403E-13, 1.999999999999988010, 79.60000000000000853 ) ) ;
#124 = CARTESIAN_POINT ( 'NONE',  ( 4.481183915275566574E-30, 6.687920688037801225E-31, 1.283462083964728109E-15 ) ) ;
#125 = PRODUCT ( '321442', '321442', '', ( #58 ) ) ;
#126 = PERSON_AND_ORGANIZATION ( #146, #115 ) ;
#127 = PERSON_AND_ORGANIZATION ( #146, #115 ) ;
#128 = APPLICATION_PROTOCOL_DEFINITION ( 'international standard', 'config_control_design', 1994, #242 ) ;
#129 = CLOSED_SHELL ( 'NONE', ( #61, #26, #85, #196 ) ) ;
#130 = AXIS2_PLACEMENT_3D ( 'NONE', #27, #60, #99 ) ;
#131 = DIRECTION ( 'NONE',  ( 1.819356455456352444E-30, -1.000000000000000000, 5.210843991104296361E-16 ) ) ;
#132 = COORDINATED_UNIVERSAL_TIME_OFFSET ( 1, 0, .AHEAD. ) ;
#133 = DIRECTION ( 'NONE',  ( 0.0000000000000000000, 0.0000000000000000000, 1.000000000000000000 ) ) ;
#134 = ORIENTED_EDGE ( 'NONE', *, *, #228, .F. ) ;
#135 = EDGE_LOOP ( 'NONE', ( #121 ) ) ;
#136 = AXIS2_PLACEMENT_3D ( 'NONE', #2, #140, #107 ) ;
#137 = LOCAL_TIME ( 11, 3, 52.00000000000000000, #33 ) ;
#138 = CC_DESIGN_PERSON_AND_ORGANIZATION_ASSIGNMENT ( #148, #218, ( #224 ) ) ;
#139 = ORIENTED_EDGE ( 'NONE', *, *, #164, .F. ) ;
#140 = DIRECTION ( 'NONE',  ( -3.491481338843133355E-15, 9.031770143711729009E-17, -1.000000000000000000 ) ) ;
#141 = AXIS2_PLACEMENT_3D ( 'NONE', #200, #161, #77 ) ;
#142 = APPROVAL_PERSON_ORGANIZATION ( #151, #108, #13 ) ;
#143 = FACE_OUTER_BOUND ( 'NONE', #49, .T. ) ;
#144 = ADVANCED_FACE ( 'NONE', ( #184, #172 ), #62, .T. ) ;
#145 = CARTESIAN_POINT ( 'NONE',  ( 4.885231259955590439E-14, 1.999999999999990452, 13.99185842870425134 ) ) ;
#146 = PERSON ( 'UNSPECIFIED', 'UNSPECIFIED', 'UNSPECIFIED', ('UNSPECIFIED'), ('UNSPECIFIED'), ('UNSPECIFIED') ) ;
#147 = APPROVAL_ROLE ( '' ) ;
#148 = PERSON_AND_ORGANIZATION ( #146, #115 ) ;
#149 = FACE_BOUND ( 'NONE', #103, .T. ) ;
#150 = FACE_OUTER_BOUND ( 'NONE', #64, .T. ) ;
#151 = PERSON_AND_ORGANIZATION ( #146, #115 ) ;
#152 = LOCAL_TIME ( 11, 3, 52.00000000000000000, #132 ) ;
#153 = APPROVAL_STATUS ( 'not_yet_approved' ) ;
#154 = EDGE_CURVE ( 'NONE', #215, #215, #208, .T. ) ;
#155 = EDGE_LOOP ( 'NONE', ( #66 ) ) ;
#156 = AXIS2_PLACEMENT_3D ( 'NONE', #179, #122, #7 ) ;
#157 = AXIS2_PLACEMENT_3D ( 'NONE', #225, #6, #197 ) ;
#158 = DIRECTION ( 'NONE',  ( -3.491481338843133355E-15, -5.210843991104296361E-16, -1.000000000000000000 ) ) ;
#159 = AXIS2_PLACEMENT_3D ( 'NONE', #37, #165, #76 ) ;
#160 = VERTEX_POINT ( 'NONE', #166 ) ;
#161 = DIRECTION ( 'NONE',  ( -3.491481338843133355E-15, 9.031770143711729009E-17, -1.000000000000000000 ) ) ;
#162 = VERTEX_POINT ( 'NONE', #123 ) ;
#163 = CIRCLE ( 'NONE', #92, 1.999999999999991784 ) ;
#164 = EDGE_CURVE ( 'NONE', #210, #210, #206, .T. ) ;
#165 = DIRECTION ( 'NONE',  ( 3.491481338843133355E-15, -9.031770143711729009E-17, 1.000000000000000000 ) ) ;
#166 = CARTESIAN_POINT ( 'NONE',  ( 0.0000000000000000000, 2.463059892324147793, 0.0000000000000000000 ) ) ;
#167 = APPROVAL_DATE_TIME ( #12, #57 ) ;
#168 = CC_DESIGN_PERSON_AND_ORGANIZATION_ASSIGNMENT ( #126, #202, ( #216 ) ) ;
#169 = PERSON_AND_ORGANIZATION ( #146, #115 ) ;
#170 = PLANE ( 'NONE',  #159 ) ;
#171 = PERSON_AND_ORGANIZATION ( #146, #115 ) ;
#172 = FACE_OUTER_BOUND ( 'NONE', #21, .T. ) ;
#173 = CARTESIAN_POINT ( 'NONE',  ( 4.885231259955590439E-14, -1.263712492114123682E-15, 13.99185842870425134 ) ) ;
#174 = COORDINATED_UNIVERSAL_TIME_OFFSET ( 1, 0, .AHEAD. ) ;
#175 = ORIENTED_EDGE ( 'NONE', *, *, #46, .F. ) ;
#176 = CC_DESIGN_PERSON_AND_ORGANIZATION_ASSIGNMENT ( #127, #189, ( #82 ) ) ;
#177 = CARTESIAN_POINT ( 'NONE',  ( 2.793185071074506684E-13, -7.225416114969383207E-15, 80.00000000000000000 ) ) ;
#178 = CC_DESIGN_DATE_AND_TIME_ASSIGNMENT ( #110, #14, ( #82 ) ) ;
#179 = CARTESIAN_POINT ( 'NONE',  ( 4.465540098720269178E-14, 2.693999999999998174, 12.78981516825142251 ) ) ;
#180 = FACE_OUTER_BOUND ( 'NONE', #193, .T. ) ;
#181 = CC_DESIGN_PERSON_AND_ORGANIZATION_ASSIGNMENT ( #186, #236, ( #224 ) ) ;
#182 = VERTEX_POINT ( 'NONE', #47 ) ;
#183 = CC_DESIGN_APPROVAL ( #108, ( #224 ) ) ;
#184 = FACE_OUTER_BOUND ( 'NONE', #135, .T. ) ;
#185 = CALENDAR_DATE ( 2021, 26, 11 ) ;
#186 = PERSON_AND_ORGANIZATION ( #146, #115 ) ;
#187 = CIRCLE ( 'NONE', #8, 2.693999999999991513 ) ;
#188 = COORDINATED_UNIVERSAL_TIME_OFFSET ( 1, 0, .AHEAD. ) ;
#189 = PERSON_AND_ORGANIZATION_ROLE ( 'classification_officer' ) ;
#190 = EDGE_CURVE ( 'NONE', #162, #162, #211, .T. ) ;
#191 = CIRCLE ( 'NONE', #241, 2.463059892324147793 ) ;
#192 = LOCAL_TIME ( 11, 3, 52.00000000000000000, #188 ) ;
#193 = EDGE_LOOP ( 'NONE', ( #222 ) ) ;
#194 = CARTESIAN_POINT ( 'NONE',  ( 2.779219145719134403E-13, -7.189289034394536528E-15, 79.60000000000000853 ) ) ;
#195 = ORIENTED_EDGE ( 'NONE', *, *, #164, .T. ) ;
#196 = ADVANCED_FACE ( 'NONE', ( #199 ), #84, .T. ) ;
#197 = DIRECTION ( 'NONE',  ( -1.819356455456352444E-30, 1.000000000000000000, -5.210843991104296361E-16 ) ) ;
#198 = DIRECTION ( 'NONE',  ( -3.491481338843133355E-15, -5.210843991104296361E-16, -1.000000000000000000 ) ) ;
#199 = FACE_OUTER_BOUND ( 'NONE', #19, .T. ) ;
#200 = CARTESIAN_POINT ( 'NONE',  ( 0.0000000000000000000, 0.0000000000000000000, 0.0000000000000000000 ) ) ;
#201 = AXIS2_PLACEMENT_3D ( 'NONE', #219, #221, #109 ) ;
#202 = PERSON_AND_ORGANIZATION_ROLE ( 'creator' ) ;
#203 = DIRECTION ( 'NONE',  ( 3.491481338843133355E-15, 5.210843991104296361E-16, 1.000000000000000000 ) ) ;
#204 = CALENDAR_DATE ( 2021, 26, 11 ) ;
#205 = CIRCLE ( 'NONE', #118, 1.599999999999994982 ) ;
#206 = CIRCLE ( 'NONE', #136, 2.693999999999999506 ) ;
#207 = DIRECTION ( 'NONE',  ( 1.000000000000000000, 0.0000000000000000000, 0.0000000000000000000 ) ) ;
#208 = CIRCLE ( 'NONE', #15, 2.693999999999997730 ) ;
#209 = ORIENTED_EDGE ( 'NONE', *, *, #190, .F. ) ;
#210 = VERTEX_POINT ( 'NONE', #29 ) ;
#211 = CIRCLE ( 'NONE', #81, 1.999999999999995337 ) ;
#212 =( GEOMETRIC_REPRESENTATION_CONTEXT ( 3 ) GLOBAL_UNCERTAINTY_ASSIGNED_CONTEXT ( ( #111 ) ) GLOBAL_UNIT_ASSIGNED_CONTEXT ( ( #232, #73, #117 ) ) REPRESENTATION_CONTEXT ( 'NONE', 'WORKASPACE' ) );
#213 = DIRECTION ( 'NONE',  ( -1.819356455456352444E-30, 1.000000000000000000, -5.210843991104296361E-16 ) ) ;
#214 = DIRECTION ( 'NONE',  ( 0.0000000000000000000, 1.000000000000000000, 0.0000000000000000000 ) ) ;
#215 = VERTEX_POINT ( 'NONE', #55 ) ;
#216 = PRODUCT_DEFINITION ( 'UNKNOWN', '', #224, #16 ) ;
#217 = AXIS2_PLACEMENT_3D ( 'NONE', #59, #133, #207 ) ;
#218 = PERSON_AND_ORGANIZATION_ROLE ( 'design_supplier' ) ;
#219 = CARTESIAN_POINT ( 'NONE',  ( 4.465540098720268547E-14, -1.155146707802045815E-15, 12.78981516825142073 ) ) ;
#220 = COORDINATED_UNIVERSAL_TIME_OFFSET ( 1, 0, .AHEAD. ) ;
#221 = DIRECTION ( 'NONE',  ( -3.491481338843133355E-15, 9.031770143711729009E-17, -1.000000000000000000 ) ) ;
#222 = ORIENTED_EDGE ( 'NONE', *, *, #154, .F. ) ;
#223 = AXIS2_PLACEMENT_3D ( 'NONE', #53, #198, #213 ) ;
#224 = PRODUCT_DEFINITION_FORMATION_WITH_SPECIFIED_SOURCE ( 'ANY', '', #125, .NOT_KNOWN. ) ;
#225 = CARTESIAN_POINT ( 'NONE',  ( -2.240591957637783287E-30, 2.463059892324147793, -6.417310419823640547E-16 ) ) ;
#226 = CALENDAR_DATE ( 2021, 26, 11 ) ;
#227 = EDGE_LOOP ( 'NONE', ( #134 ) ) ;
#228 = EDGE_CURVE ( 'NONE', #182, #182, #187, .T. ) ;
#229 = PLANE ( 'NONE',  #130 ) ;
#230 = DIRECTION ( 'NONE',  ( 0.0000000000000000000, 1.000000000000000000, 0.0000000000000000000 ) ) ;
#231 = CLOSED_SHELL ( 'NONE', ( #102, #105, #144, #80, #30 ) ) ;
#232 =( LENGTH_UNIT ( ) NAMED_UNIT ( * ) SI_UNIT ( .MILLI., .METRE. ) );
#233 = DIRECTION ( 'NONE',  ( -3.491481338843133355E-15, 9.031770143711729009E-17, -1.000000000000000000 ) ) ;
#234 = CARTESIAN_POINT ( 'NONE',  ( 4.481183915275566574E-30, 6.687920688037801225E-31, 1.283462083964728109E-15 ) ) ;
#235 = DIRECTION ( 'NONE',  ( -3.491481338843133355E-15, 9.031770143711729009E-17, -1.000000000000000000 ) ) ;
#236 = PERSON_AND_ORGANIZATION_ROLE ( 'creator' ) ;
#237 = EDGE_LOOP ( 'NONE', ( #195 ) ) ;
#238 = PERSON_AND_ORGANIZATION ( #146, #115 ) ;
#239 = ORIENTED_EDGE ( 'NONE', *, *, #74, .F. ) ;
#240 = EDGE_LOOP ( 'NONE', ( #209 ) ) ;
#241 = AXIS2_PLACEMENT_3D ( 'NONE', #234, #75, #25 ) ;
#242 = APPLICATION_CONTEXT ( 'configuration controlled 3d designs of mechanical parts and assemblies' ) ;
#243 = CC_DESIGN_APPROVAL ( #57, ( #216 ) ) ;
ENDSEC;
END-ISO-10303-21;
