ISO-10303-21;
HEADER;
FILE_DESCRIPTION (( 'STEP AP203' ),
    '1' );
FILE_NAME ('321441.step',
    '2021-11-26T10:03:51',
    ( '' ),
    ( '' ),
    'SwSTEP 2.0',
    'SolidWorks 2019',
    '' );
FILE_SCHEMA (( 'CONFIG_CONTROL_DESIGN' ));
ENDSEC;

DATA;
#1 = UNCERTAINTY_MEASURE_WITH_UNIT (LENGTH_MEASURE( 1.000000000000000082E-05 ), #189, 'distance_accuracy_value', 'NONE');
#2 = CONICAL_SURFACE ( 'NONE', #130, 2.688999999999999613, 0.5235987755982930425 ) ;
#3 = DIRECTION ( 'NONE',  ( -3.491481338843133355E-15, -5.205660659863651651E-16, -1.000000000000000000 ) ) ;
#4 = DIRECTION ( 'NONE',  ( -1.790563354766862434E-30, 1.000000000000000000, -5.241587297252349676E-16 ) ) ;
#5 = CARTESIAN_POINT ( 'NONE',  ( 2.793185071074506684E-13, 1.599999999999987876, 80.00000000000000000 ) ) ;
#6 = ORIENTED_EDGE ( 'NONE', *, *, #179, .F. ) ;
#7 = CARTESIAN_POINT ( 'NONE',  ( 4.468563810256546051E-14, 2.688999999999998280, 12.79847542228926649 ) ) ;
#8 = FACE_OUTER_BOUND ( 'NONE', #98, .T. ) ;
#9 = EDGE_LOOP ( 'NONE', ( #233 ) ) ;
#10 = PERSON_AND_ORGANIZATION ( #74, #52 ) ;
#11 = DIRECTION ( 'NONE',  ( -3.491481338843133355E-15, 9.031770143711729009E-17, -1.000000000000000000 ) ) ;
#12 = ORIENTED_EDGE ( 'NONE', *, *, #54, .T. ) ;
#13 = AXIS2_PLACEMENT_3D ( 'NONE', #88, #89, #224 ) ;
#14 = PERSON_AND_ORGANIZATION ( #74, #52 ) ;
#15 = ORIENTED_EDGE ( 'NONE', *, *, #168, .T. ) ;
#16 = DIRECTION ( 'NONE',  ( -3.491481338843133355E-15, 9.031770143711729009E-17, -1.000000000000000000 ) ) ;
#17 = CC_DESIGN_DATE_AND_TIME_ASSIGNMENT ( #161, #160, ( #219 ) ) ;
#18 = CLOSED_SHELL ( 'NONE', ( #112, #159, #152, #196 ) ) ;
#19 = PLANE ( 'NONE',  #150 ) ;
#20 = ADVANCED_FACE ( 'NONE', ( #163, #243 ), #135, .T. ) ;
#21 = AXIS2_PLACEMENT_3D ( 'NONE', #133, #59, #114 ) ;
#22 = FACE_BOUND ( 'NONE', #42, .T. ) ;
#23 = DIRECTION ( 'NONE',  ( -3.491481338843133355E-15, -5.205660659863651651E-16, -1.000000000000000000 ) ) ;
#24 = ADVANCED_BREP_SHAPE_REPRESENTATION ( '321441', ( #37, #117, #26 ), #103 ) ;
#25 = PERSON_AND_ORGANIZATION ( #74, #52 ) ;
#26 = AXIS2_PLACEMENT_3D ( 'NONE', #230, #232, #156 ) ;
#27 = CARTESIAN_POINT ( 'NONE',  ( 6.842277657836020854E-46, 2.458059892324147899, 0.0000000000000000000 ) ) ;
#28 = EDGE_LOOP ( 'NONE', ( #197 ) ) ;
#29 = EDGE_LOOP ( 'NONE', ( #214 ) ) ;
#30 = PERSON_AND_ORGANIZATION ( #74, #52 ) ;
#31 = AXIS2_PLACEMENT_3D ( 'NONE', #36, #11, #143 ) ;
#32 = LOCAL_TIME ( 11, 3, 51.00000000000000000, #184 ) ;
#33 = EDGE_LOOP ( 'NONE', ( #236 ) ) ;
#34 = CC_DESIGN_PERSON_AND_ORGANIZATION_ASSIGNMENT ( #10, #101, ( #68 ) ) ;
#35 = APPROVAL_STATUS ( 'not_yet_approved' ) ;
#36 = CARTESIAN_POINT ( 'NONE',  ( 0.0000000000000000000, 0.0000000000000000000, 0.0000000000000000000 ) ) ;
#37 = MANIFOLD_SOLID_BREP ( 'Corps-Déplacer/Copier1[1]', #155 ) ;
#38 = DIRECTION ( 'NONE',  ( 0.0000000000000000000, 1.000000000000000000, 0.0000000000000000000 ) ) ;
#39 = EDGE_CURVE ( 'NONE', #192, #192, #110, .T. ) ;
#40 = CARTESIAN_POINT ( 'NONE',  ( 1.396592535537258075E-15, 2.082264263945467661E-16, 0.4000000000000013545 ) ) ;
#41 = DIRECTION ( 'NONE',  ( 0.0000000000000000000, 1.000000000000000000, 0.0000000000000000000 ) ) ;
#42 = EDGE_LOOP ( 'NONE', ( #157 ) ) ;
#43 = VERTEX_POINT ( 'NONE', #63 ) ;
#44 = DATE_AND_TIME ( #69, #32 ) ;
#45 = CARTESIAN_POINT ( 'NONE',  ( 2.779219145719134403E-13, -7.189289034394536528E-15, 79.60000000000000853 ) ) ;
#46 = ORIENTED_EDGE ( 'NONE', *, *, #39, .F. ) ;
#47 = SHAPE_DEFINITION_REPRESENTATION ( #127, #24 ) ;
#48 = AXIS2_PLACEMENT_3D ( 'NONE', #210, #121, #237 ) ;
#49 = DIRECTION ( 'NONE',  ( -3.491481338843133355E-15, 9.031770143711729009E-17, -1.000000000000000000 ) ) ;
#50 = APPROVAL_DATE_TIME ( #183, #221 ) ;
#51 = CARTESIAN_POINT ( 'NONE',  ( 4.467638658051246892E-30, 6.661072635836966871E-31, 1.279582568106049992E-15 ) ) ;
#52 = ORGANIZATION ( 'UNSPECIFIED', 'UNSPECIFIED', '' ) ;
#53 = APPROVAL_PERSON_ORGANIZATION ( #30, #221, #180 ) ;
#54 = EDGE_CURVE ( 'NONE', #116, #116, #235, .T. ) ;
#55 = DIRECTION ( 'NONE',  ( 3.153425691349006731E-31, 1.000000000000000000, 9.031770143711729009E-17 ) ) ;
#56 = FACE_OUTER_BOUND ( 'NONE', #191, .T. ) ;
#57 = EDGE_CURVE ( 'NONE', #134, #134, #222, .T. ) ;
#58 = DIRECTION ( 'NONE',  ( -3.491481338843133355E-15, -5.205660659863651651E-16, -1.000000000000000000 ) ) ;
#59 = DIRECTION ( 'NONE',  ( 3.491481338843133355E-15, 5.205660659863651651E-16, 1.000000000000000000 ) ) ;
#60 = APPLICATION_CONTEXT ( 'configuration controlled 3d designs of mechanical parts and assemblies' ) ;
#61 = CARTESIAN_POINT ( 'NONE',  ( 4.468563810256546051E-14, 2.688999999999998280, 12.79847542228926649 ) ) ;
#62 = PRODUCT_DEFINITION_FORMATION_WITH_SPECIFIED_SOURCE ( 'ANY', '', #86, .NOT_KNOWN. ) ;
#63 = CARTESIAN_POINT ( 'NONE',  ( 2.779219145719134403E-13, 1.999999999999988010, 79.60000000000000853 ) ) ;
#64 = DIRECTION ( 'NONE',  ( -1.817546705026377050E-30, 1.000000000000000000, -5.205660659863651651E-16 ) ) ;
#65 = EDGE_LOOP ( 'NONE', ( #79 ) ) ;
#66 = DIRECTION ( 'NONE',  ( -3.491481338843133355E-15, -5.205660659863651651E-16, -1.000000000000000000 ) ) ;
#67 = EDGE_LOOP ( 'NONE', ( #15 ) ) ;
#68 = PRODUCT_DEFINITION ( 'UNKNOWN', '', #62, #109 ) ;
#69 = CALENDAR_DATE ( 2021, 26, 11 ) ;
#70 = CALENDAR_DATE ( 2021, 26, 11 ) ;
#71 = ORIENTED_EDGE ( 'NONE', *, *, #118, .F. ) ;
#72 = DIRECTION ( 'NONE',  ( -3.491481338843133355E-15, 9.031770143711729009E-17, -1.000000000000000000 ) ) ;
#73 = CALENDAR_DATE ( 2021, 26, 11 ) ;
#74 = PERSON ( 'UNSPECIFIED', 'UNSPECIFIED', 'UNSPECIFIED', ('UNSPECIFIED'), ('UNSPECIFIED'), ('UNSPECIFIED') ) ;
#75 = CC_DESIGN_PERSON_AND_ORGANIZATION_ASSIGNMENT ( #220, #141, ( #62 ) ) ;
#76 = DIRECTION ( 'NONE',  ( -3.491481338843133355E-15, 9.031770143711729009E-17, -1.000000000000000000 ) ) ;
#77 = CARTESIAN_POINT ( 'NONE',  ( 4.468563810256546051E-14, -1.155928882040605702E-15, 12.79847542228926649 ) ) ;
#78 = PLANE ( 'NONE',  #148 ) ;
#79 = ORIENTED_EDGE ( 'NONE', *, *, #168, .F. ) ;
#80 = PERSON_AND_ORGANIZATION ( #74, #52 ) ;
#81 = AXIS2_PLACEMENT_3D ( 'NONE', #45, #49, #162 ) ;
#82 = COORDINATED_UNIVERSAL_TIME_OFFSET ( 1, 0, .AHEAD. ) ;
#83 = CYLINDRICAL_SURFACE ( 'NONE', #31, 1.999999999999993561 ) ;
#84 = PERSON_AND_ORGANIZATION_ROLE ( 'classification_officer' ) ;
#85 = CC_DESIGN_DATE_AND_TIME_ASSIGNMENT ( #44, #234, ( #68 ) ) ;
#86 = PRODUCT ( '321441', '321441', '', ( #138 ) ) ;
#87 = CC_DESIGN_PERSON_AND_ORGANIZATION_ASSIGNMENT ( #14, #84, ( #219 ) ) ;
#88 = CARTESIAN_POINT ( 'NONE',  ( 2.793185071074506684E-13, -7.225416114969383207E-15, 80.00000000000000000 ) ) ;
#89 = DIRECTION ( 'NONE',  ( -3.491481338843133355E-15, 9.031770143711729009E-17, -1.000000000000000000 ) ) ;
#90 = DIRECTION ( 'NONE',  ( 0.0000000000000000000, 1.000000000000000000, 0.0000000000000000000 ) ) ;
#91 = DIRECTION ( 'NONE',  ( -2.291921094101589311E-30, 1.000000000000000000, -6.451184365849060698E-16 ) ) ;
#92 = CARTESIAN_POINT ( 'NONE',  ( 1.396592535537253342E-15, 2.688999999999997836, 0.3999999999999999667 ) ) ;
#93 = CIRCLE ( 'NONE', #139, 1.999999999999991784 ) ;
#94 = FACE_OUTER_BOUND ( 'NONE', #9, .T. ) ;
#95 = CC_DESIGN_PERSON_AND_ORGANIZATION_ASSIGNMENT ( #213, #178, ( #62 ) ) ;
#96 = DIRECTION ( 'NONE',  ( -3.491481338843133355E-15, -5.205660659863651651E-16, -1.000000000000000000 ) ) ;
#97 = CARTESIAN_POINT ( 'NONE',  ( 4.885231259955590439E-14, 1.999999999999990452, 13.99185842870425134 ) ) ;
#98 = EDGE_LOOP ( 'NONE', ( #71 ) ) ;
#99 = FACE_OUTER_BOUND ( 'NONE', #67, .T. ) ;
#100 = EDGE_LOOP ( 'NONE', ( #12 ) ) ;
#101 = PERSON_AND_ORGANIZATION_ROLE ( 'creator' ) ;
#102 = AXIS2_PLACEMENT_3D ( 'NONE', #240, #66, #64 ) ;
#103 =( GEOMETRIC_REPRESENTATION_CONTEXT ( 3 ) GLOBAL_UNCERTAINTY_ASSIGNED_CONTEXT ( ( #1 ) ) GLOBAL_UNIT_ASSIGNED_CONTEXT ( ( #189, #176, #228 ) ) REPRESENTATION_CONTEXT ( 'NONE', 'WORKASPACE' ) );
#104 = APPROVAL_STATUS ( 'not_yet_approved' ) ;
#105 = FACE_OUTER_BOUND ( 'NONE', #33, .T. ) ;
#106 = CARTESIAN_POINT ( 'NONE',  ( 4.885231259955590439E-14, -1.263712492114123682E-15, 13.99185842870425134 ) ) ;
#107 = LOCAL_TIME ( 11, 3, 51.00000000000000000, #82 ) ;
#108 = ORIENTED_EDGE ( 'NONE', *, *, #39, .T. ) ;
#109 = DESIGN_CONTEXT ( 'detailed design', #60, 'design' ) ;
#110 = CIRCLE ( 'NONE', #136, 2.458059892324147899 ) ;
#111 = DIRECTION ( 'NONE',  ( -3.491481338843133355E-15, 9.031770143711729009E-17, -1.000000000000000000 ) ) ;
#112 = ADVANCED_FACE ( 'NONE', ( #212 ), #158, .T. ) ;
#113 = CONICAL_SURFACE ( 'NONE', #21, 2.458059892324147899, 0.5235987755982978165 ) ;
#114 = DIRECTION ( 'NONE',  ( 1.817546705026376700E-30, -1.000000000000000000, 5.205660659863651651E-16 ) ) ;
#115 = CIRCLE ( 'NONE', #13, 1.599999999999994982 ) ;
#116 = VERTEX_POINT ( 'NONE', #7 ) ;
#117 = MANIFOLD_SOLID_BREP ( 'Corps-Déplacer/Copier1[2]', #18 ) ;
#118 = EDGE_CURVE ( 'NONE', #153, #153, #93, .T. ) ;
#119 = VERTEX_POINT ( 'NONE', #5 ) ;
#120 = LOCAL_TIME ( 11, 3, 51.00000000000000000, #126 ) ;
#121 = DIRECTION ( 'NONE',  ( 3.491481338843133355E-15, 5.205660659863651651E-16, 1.000000000000000000 ) ) ;
#122 = CARTESIAN_POINT ( 'NONE',  ( 4.468563810256546051E-14, -1.155928882040605702E-15, 12.79847542228926649 ) ) ;
#123 = DATE_AND_TIME ( #73, #231 ) ;
#124 = CARTESIAN_POINT ( 'NONE',  ( 4.468563810256545420E-14, 2.688999999999998280, 12.79847542228926471 ) ) ;
#125 = PRODUCT_RELATED_PRODUCT_CATEGORY ( 'detail', '', ( #86 ) ) ;
#126 = COORDINATED_UNIVERSAL_TIME_OFFSET ( 1, 0, .AHEAD. ) ;
#127 = PRODUCT_DEFINITION_SHAPE ( 'NONE', 'NONE',  #68 ) ;
#128 = CALENDAR_DATE ( 2021, 26, 11 ) ;
#129 = ADVANCED_FACE ( 'NONE', ( #56 ), #19, .T. ) ;
#130 = AXIS2_PLACEMENT_3D ( 'NONE', #77, #111, #90 ) ;
#131 = CC_DESIGN_PERSON_AND_ORGANIZATION_ASSIGNMENT ( #137, #209, ( #86 ) ) ;
#132 = DIRECTION ( 'NONE',  ( -3.153425691349006731E-31, -1.000000000000000000, -9.031770143711729009E-17 ) ) ;
#133 = CARTESIAN_POINT ( 'NONE',  ( 4.467638658051246892E-30, 6.661072635836966871E-31, 1.279582568106049992E-15 ) ) ;
#134 = VERTEX_POINT ( 'NONE', #92 ) ;
#135 = CONICAL_SURFACE ( 'NONE', #211, 1.999999999999995337, 0.7853981633974516097 ) ;
#136 = AXIS2_PLACEMENT_3D ( 'NONE', #51, #58, #170 ) ;
#137 = PERSON_AND_ORGANIZATION ( #74, #52 ) ;
#138 = MECHANICAL_CONTEXT ( 'NONE', #204, 'mechanical' ) ;
#139 = AXIS2_PLACEMENT_3D ( 'NONE', #106, #76, #38 ) ;
#140 = APPROVAL_DATE_TIME ( #123, #185 ) ;
#141 = PERSON_AND_ORGANIZATION_ROLE ( 'creator' ) ;
#142 = ADVANCED_FACE ( 'NONE', ( #22, #186 ), #2, .T. ) ;
#143 = DIRECTION ( 'NONE',  ( 3.153425691349006731E-31, 1.000000000000000000, 9.031770143711729009E-17 ) ) ;
#144 = APPROVAL_DATE_TIME ( #146, #166 ) ;
#145 = LOCAL_TIME ( 11, 3, 51.00000000000000000, #238 ) ;
#146 = DATE_AND_TIME ( #128, #120 ) ;
#147 = CIRCLE ( 'NONE', #81, 1.999999999999995337 ) ;
#148 = AXIS2_PLACEMENT_3D ( 'NONE', #227, #3, #207 ) ;
#149 = FACE_BOUND ( 'NONE', #181, .T. ) ;
#150 = AXIS2_PLACEMENT_3D ( 'NONE', #167, #151, #132 ) ;
#151 = DIRECTION ( 'NONE',  ( 3.491481338843133355E-15, -9.031770143711729009E-17, 1.000000000000000000 ) ) ;
#152 = ADVANCED_FACE ( 'NONE', ( #226, #149 ), #113, .T. ) ;
#153 = VERTEX_POINT ( 'NONE', #97 ) ;
#154 = DIRECTION ( 'NONE',  ( -3.491481338843133355E-15, 9.031770143711729009E-17, -1.000000000000000000 ) ) ;
#155 = CLOSED_SHELL ( 'NONE', ( #129, #20, #164, #142, #174 ) ) ;
#156 = DIRECTION ( 'NONE',  ( 1.000000000000000000, 0.0000000000000000000, 0.0000000000000000000 ) ) ;
#157 = ORIENTED_EDGE ( 'NONE', *, *, #118, .T. ) ;
#158 = PLANE ( 'NONE',  #48 ) ;
#159 = ADVANCED_FACE ( 'NONE', ( #206, #94 ), #171, .T. ) ;
#160 = DATE_TIME_ROLE ( 'classification_date' ) ;
#161 = DATE_AND_TIME ( #217, #107 ) ;
#162 = DIRECTION ( 'NONE',  ( 0.0000000000000000000, 1.000000000000000000, 0.0000000000000000000 ) ) ;
#163 = FACE_BOUND ( 'NONE', #177, .T. ) ;
#164 = ADVANCED_FACE ( 'NONE', ( #99, #8 ), #83, .T. ) ;
#165 = ORIENTED_EDGE ( 'NONE', *, *, #54, .F. ) ;
#166 = APPROVAL ( #175, 'UNSPECIFIED' ) ;
#167 = CARTESIAN_POINT ( 'NONE',  ( 2.793185071074506684E-13, -7.225416114969383207E-15, 80.00000000000000000 ) ) ;
#168 = EDGE_CURVE ( 'NONE', #43, #43, #147, .T. ) ;
#169 = VERTEX_POINT ( 'NONE', #61 ) ;
#170 = DIRECTION ( 'NONE',  ( -1.817546705026377050E-30, 1.000000000000000000, -5.205660659863651651E-16 ) ) ;
#171 = CYLINDRICAL_SURFACE ( 'NONE', #102, 2.688999999999994728 ) ;
#172 = APPLICATION_PROTOCOL_DEFINITION ( 'international standard', 'config_control_design', 1994, #204 ) ;
#173 = EDGE_LOOP ( 'NONE', ( #165 ) ) ;
#174 = ADVANCED_FACE ( 'NONE', ( #105 ), #216, .T. ) ;
#175 = APPROVAL_STATUS ( 'not_yet_approved' ) ;
#176 =( NAMED_UNIT ( * ) PLANE_ANGLE_UNIT ( ) SI_UNIT ( $, .RADIAN. ) );
#177 = EDGE_LOOP ( 'NONE', ( #198 ) ) ;
#178 = PERSON_AND_ORGANIZATION_ROLE ( 'design_supplier' ) ;
#179 = EDGE_CURVE ( 'NONE', #119, #119, #115, .T. ) ;
#180 = APPROVAL_ROLE ( '' ) ;
#181 = EDGE_LOOP ( 'NONE', ( #46 ) ) ;
#182 = AXIS2_PLACEMENT_3D ( 'NONE', #122, #154, #41 ) ;
#183 = DATE_AND_TIME ( #70, #145 ) ;
#184 = COORDINATED_UNIVERSAL_TIME_OFFSET ( 1, 0, .AHEAD. ) ;
#185 = APPROVAL ( #35, 'UNSPECIFIED' ) ;
#186 = FACE_OUTER_BOUND ( 'NONE', #28, .T. ) ;
#187 = CC_DESIGN_APPROVAL ( #166, ( #68 ) ) ;
#188 = CC_DESIGN_APPROVAL ( #221, ( #219 ) ) ;
#189 =( LENGTH_UNIT ( ) NAMED_UNIT ( * ) SI_UNIT ( .MILLI., .METRE. ) );
#190 = APPLICATION_PROTOCOL_DEFINITION ( 'international standard', 'config_control_design', 1994, #60 ) ;
#191 = EDGE_LOOP ( 'NONE', ( #6 ) ) ;
#192 = VERTEX_POINT ( 'NONE', #27 ) ;
#193 = CC_DESIGN_APPROVAL ( #185, ( #62 ) ) ;
#194 = EDGE_LOOP ( 'NONE', ( #108 ) ) ;
#195 = APPROVAL_ROLE ( '' ) ;
#196 = ADVANCED_FACE ( 'NONE', ( #205 ), #78, .T. ) ;
#197 = ORIENTED_EDGE ( 'NONE', *, *, #242, .F. ) ;
#198 = ORIENTED_EDGE ( 'NONE', *, *, #179, .T. ) ;
#199 = COORDINATED_UNIVERSAL_TIME_OFFSET ( 1, 0, .AHEAD. ) ;
#200 = AXIS2_PLACEMENT_3D ( 'NONE', #208, #96, #91 ) ;
#201 = APPROVAL_PERSON_ORGANIZATION ( #80, #185, #202 ) ;
#202 = APPROVAL_ROLE ( '' ) ;
#203 = AXIS2_PLACEMENT_3D ( 'NONE', #40, #23, #4 ) ;
#204 = APPLICATION_CONTEXT ( 'configuration controlled 3d designs of mechanical parts and assemblies' ) ;
#205 = FACE_OUTER_BOUND ( 'NONE', #194, .T. ) ;
#206 = FACE_OUTER_BOUND ( 'NONE', #100, .T. ) ;
#207 = DIRECTION ( 'NONE',  ( -1.817546705026377050E-30, 1.000000000000000000, -5.205660659863651651E-16 ) ) ;
#208 = CARTESIAN_POINT ( 'NONE',  ( 4.468563810256546683E-14, 6.662452001204307849E-15, 12.79847542228926827 ) ) ;
#209 = PERSON_AND_ORGANIZATION_ROLE ( 'design_owner' ) ;
#210 = CARTESIAN_POINT ( 'NONE',  ( 4.468563810256545420E-14, 6.662452001204305482E-15, 12.79847542228926471 ) ) ;
#211 = AXIS2_PLACEMENT_3D ( 'NONE', #239, #72, #218 ) ;
#212 = FACE_OUTER_BOUND ( 'NONE', #173, .T. ) ;
#213 = PERSON_AND_ORGANIZATION ( #74, #52 ) ;
#214 = ORIENTED_EDGE ( 'NONE', *, *, #57, .T. ) ;
#215 = SECURITY_CLASSIFICATION_LEVEL ( 'unclassified' ) ;
#216 = PLANE ( 'NONE',  #223 ) ;
#217 = CALENDAR_DATE ( 2021, 26, 11 ) ;
#218 = DIRECTION ( 'NONE',  ( 0.0000000000000000000, 1.000000000000000000, 0.0000000000000000000 ) ) ;
#219 = SECURITY_CLASSIFICATION ( '', '', #215 ) ;
#220 = PERSON_AND_ORGANIZATION ( #74, #52 ) ;
#221 = APPROVAL ( #104, 'UNSPECIFIED' ) ;
#222 = CIRCLE ( 'NONE', #203, 2.688999999999997836 ) ;
#223 = AXIS2_PLACEMENT_3D ( 'NONE', #124, #16, #55 ) ;
#224 = DIRECTION ( 'NONE',  ( 0.0000000000000000000, 1.000000000000000000, 0.0000000000000000000 ) ) ;
#225 = APPROVAL_PERSON_ORGANIZATION ( #25, #166, #195 ) ;
#226 = FACE_OUTER_BOUND ( 'NONE', #29, .T. ) ;
#227 = CARTESIAN_POINT ( 'NONE',  ( -2.233819329025623446E-30, 2.458059892324147899, -6.397912840530249961E-16 ) ) ;
#228 =( NAMED_UNIT ( * ) SI_UNIT ( $, .STERADIAN. ) SOLID_ANGLE_UNIT ( ) );
#229 = CIRCLE ( 'NONE', #182, 2.688999999999999613 ) ;
#230 = CARTESIAN_POINT ( 'NONE',  ( 0.0000000000000000000, 0.0000000000000000000, 0.0000000000000000000 ) ) ;
#231 = LOCAL_TIME ( 11, 3, 51.00000000000000000, #199 ) ;
#232 = DIRECTION ( 'NONE',  ( 0.0000000000000000000, 0.0000000000000000000, 1.000000000000000000 ) ) ;
#233 = ORIENTED_EDGE ( 'NONE', *, *, #57, .F. ) ;
#234 = DATE_TIME_ROLE ( 'creation_date' ) ;
#235 = CIRCLE ( 'NONE', #200, 2.688999999999991619 ) ;
#236 = ORIENTED_EDGE ( 'NONE', *, *, #242, .T. ) ;
#237 = DIRECTION ( 'NONE',  ( 1.817546705026377050E-30, -1.000000000000000000, 5.205660659863651651E-16 ) ) ;
#238 = COORDINATED_UNIVERSAL_TIME_OFFSET ( 1, 0, .AHEAD. ) ;
#239 = CARTESIAN_POINT ( 'NONE',  ( 2.779219145719134403E-13, -7.189289034394536528E-15, 79.60000000000000853 ) ) ;
#240 = CARTESIAN_POINT ( 'NONE',  ( 0.0000000000000000000, 0.0000000000000000000, 0.0000000000000000000 ) ) ;
#241 = CC_DESIGN_SECURITY_CLASSIFICATION ( #219, ( #62 ) ) ;
#242 = EDGE_CURVE ( 'NONE', #169, #169, #229, .T. ) ;
#243 = FACE_OUTER_BOUND ( 'NONE', #65, .T. ) ;
ENDSEC;
END-ISO-10303-21;
