ISO-10303-21;
HEADER;
FILE_DESCRIPTION (( 'STEP AP203' ),
    '1' );
FILE_NAME ('321440.step',
    '2021-11-26T10:03:51',
    ( '' ),
    ( '' ),
    'SwSTEP 2.0',
    'SolidWorks 2019',
    '' );
FILE_SCHEMA (( 'CONFIG_CONTROL_DESIGN' ));
ENDSEC;

DATA;
#1 = CIRCLE ( 'NONE', #33, 1.599999999999994982 ) ;
#2 = LOCAL_TIME ( 11, 3, 51.00000000000000000, #86 ) ;
#3 = EDGE_LOOP ( 'NONE', ( #144 ) ) ;
#4 = EDGE_LOOP ( 'NONE', ( #100 ) ) ;
#5 = CIRCLE ( 'NONE', #158, 2.683999999999997943 ) ;
#6 = CARTESIAN_POINT ( 'NONE',  ( 1.396592535537253342E-15, 2.683999999999997943, 0.3999999999999999667 ) ) ;
#7 = PERSON_AND_ORGANIZATION ( #210, #92 ) ;
#8 = ORIENTED_EDGE ( 'NONE', *, *, #57, .F. ) ;
#9 = DATE_AND_TIME ( #124, #2 ) ;
#10 = DIRECTION ( 'NONE',  ( -1.793898979496308963E-30, 1.000000000000000000, -5.251351804139928913E-16 ) ) ;
#11 = CARTESIAN_POINT ( 'NONE',  ( 4.471587521792824818E-14, 6.660330850726850661E-15, 12.80713567632711225 ) ) ;
#12 = AXIS2_PLACEMENT_3D ( 'NONE', #11, #229, #90 ) ;
#13 = CARTESIAN_POINT ( 'NONE',  ( 4.471587521792824187E-14, 2.683999999999998387, 12.80713567632711225 ) ) ;
#14 = FACE_OUTER_BOUND ( 'NONE', #136, .T. ) ;
#15 = ADVANCED_FACE ( 'NONE', ( #64 ), #83, .T. ) ;
#16 = APPROVAL_DATE_TIME ( #130, #213 ) ;
#17 = MECHANICAL_CONTEXT ( 'NONE', #174, 'mechanical' ) ;
#18 = APPROVAL_STATUS ( 'not_yet_approved' ) ;
#19 = CALENDAR_DATE ( 2021, 26, 11 ) ;
#20 = FACE_BOUND ( 'NONE', #183, .T. ) ;
#21 = CLOSED_SHELL ( 'NONE', ( #231, #61, #161, #155, #15 ) ) ;
#22 = PERSON_AND_ORGANIZATION_ROLE ( 'creator' ) ;
#23 = APPROVAL ( #76, 'UNSPECIFIED' ) ;
#24 = PERSON_AND_ORGANIZATION ( #210, #92 ) ;
#25 = ORIENTED_EDGE ( 'NONE', *, *, #57, .T. ) ;
#26 = AXIS2_PLACEMENT_3D ( 'NONE', #132, #146, #206 ) ;
#27 = APPROVAL_PERSON_ORGANIZATION ( #24, #23, #219 ) ;
#28 = EDGE_CURVE ( 'NONE', #103, #103, #88, .T. ) ;
#29 = DIRECTION ( 'NONE',  ( -3.491481338843133355E-15, -5.200484338615931765E-16, -1.000000000000000000 ) ) ;
#30 = AXIS2_PLACEMENT_3D ( 'NONE', #171, #189, #191 ) ;
#31 = ORIENTED_EDGE ( 'NONE', *, *, #237, .F. ) ;
#32 = CC_DESIGN_SECURITY_CLASSIFICATION ( #82, ( #224 ) ) ;
#33 = AXIS2_PLACEMENT_3D ( 'NONE', #54, #133, #43 ) ;
#34 = CARTESIAN_POINT ( 'NONE',  ( 0.0000000000000000000, 0.0000000000000000000, 0.0000000000000000000 ) ) ;
#35 = EDGE_LOOP ( 'NONE', ( #120 ) ) ;
#36 = SECURITY_CLASSIFICATION_LEVEL ( 'unclassified' ) ;
#37 = ADVANCED_FACE ( 'NONE', ( #156, #181 ), #115, .T. ) ;
#38 = ORIENTED_EDGE ( 'NONE', *, *, #113, .F. ) ;
#39 = DIRECTION ( 'NONE',  ( -3.491481338843133355E-15, 9.031770143711729009E-17, -1.000000000000000000 ) ) ;
#40 = FACE_OUTER_BOUND ( 'NONE', #77, .T. ) ;
#41 = PERSON_AND_ORGANIZATION_ROLE ( 'design_supplier' ) ;
#42 = DATE_TIME_ROLE ( 'creation_date' ) ;
#43 = DIRECTION ( 'NONE',  ( 0.0000000000000000000, 1.000000000000000000, 0.0000000000000000000 ) ) ;
#44 = EDGE_CURVE ( 'NONE', #106, #106, #45, .T. ) ;
#45 = CIRCLE ( 'NONE', #137, 1.999999999999991784 ) ;
#46 = DIRECTION ( 'NONE',  ( 3.153425691349006731E-31, 1.000000000000000000, 9.031770143711729009E-17 ) ) ;
#47 = CLOSED_SHELL ( 'NONE', ( #223, #50, #37, #143 ) ) ;
#48 = DIRECTION ( 'NONE',  ( -3.491481338843133355E-15, 9.031770143711729009E-17, -1.000000000000000000 ) ) ;
#49 = FACE_OUTER_BOUND ( 'NONE', #53, .T. ) ;
#50 = ADVANCED_FACE ( 'NONE', ( #197, #14 ), #74, .T. ) ;
#51 = EDGE_LOOP ( 'NONE', ( #38 ) ) ;
#52 = CARTESIAN_POINT ( 'NONE',  ( 2.779219145719134403E-13, 1.999999999999988010, 79.60000000000000853 ) ) ;
#53 = EDGE_LOOP ( 'NONE', ( #201 ) ) ;
#54 = CARTESIAN_POINT ( 'NONE',  ( 2.793185071074506684E-13, -7.225416114969383207E-15, 80.00000000000000000 ) ) ;
#55 = COORDINATED_UNIVERSAL_TIME_OFFSET ( 1, 0, .AHEAD. ) ;
#56 = PERSON_AND_ORGANIZATION_ROLE ( 'design_owner' ) ;
#57 = EDGE_CURVE ( 'NONE', #69, #69, #1, .T. ) ;
#58 = APPLICATION_PROTOCOL_DEFINITION ( 'international standard', 'config_control_design', 1994, #174 ) ;
#59 = DIRECTION ( 'NONE',  ( 0.0000000000000000000, 1.000000000000000000, 0.0000000000000000000 ) ) ;
#60 = DIRECTION ( 'NONE',  ( 1.000000000000000000, 0.0000000000000000000, 0.0000000000000000000 ) ) ;
#61 = ADVANCED_FACE ( 'NONE', ( #20, #154 ), #121, .T. ) ;
#62 = DIRECTION ( 'NONE',  ( 1.815739402122350272E-30, -1.000000000000000000, 5.200484338615931765E-16 ) ) ;
#63 = AXIS2_PLACEMENT_3D ( 'NONE', #97, #65, #226 ) ;
#64 = FACE_OUTER_BOUND ( 'NONE', #3, .T. ) ;
#65 = DIRECTION ( 'NONE',  ( -3.491481338843133355E-15, -5.200484338615931765E-16, -1.000000000000000000 ) ) ;
#66 = ORIENTED_EDGE ( 'NONE', *, *, #237, .T. ) ;
#67 = MANIFOLD_SOLID_BREP ( 'Corps-Déplacer/Copier1[1]', #21 ) ;
#68 = DIRECTION ( 'NONE',  ( -3.491481338843133355E-15, -5.200484338615931765E-16, -1.000000000000000000 ) ) ;
#69 = VERTEX_POINT ( 'NONE', #148 ) ;
#70 = DIRECTION ( 'NONE',  ( -1.815739402122349922E-30, 1.000000000000000000, -5.200484338615931765E-16 ) ) ;
#71 = CARTESIAN_POINT ( 'NONE',  ( 0.0000000000000000000, 0.0000000000000000000, 0.0000000000000000000 ) ) ;
#72 = PRODUCT_RELATED_PRODUCT_CATEGORY ( 'detail', '', ( #109 ) ) ;
#73 = CARTESIAN_POINT ( 'NONE',  ( 0.0000000000000000000, 2.453059892324148006, 0.0000000000000000000 ) ) ;
#74 = CYLINDRICAL_SURFACE ( 'NONE', #142, 2.683999999999994834 ) ;
#75 = APPLICATION_CONTEXT ( 'configuration controlled 3d designs of mechanical parts and assemblies' ) ;
#76 = APPROVAL_STATUS ( 'not_yet_approved' ) ;
#77 = EDGE_LOOP ( 'NONE', ( #230 ) ) ;
#78 = AXIS2_PLACEMENT_3D ( 'NONE', #117, #29, #99 ) ;
#79 = PERSON_AND_ORGANIZATION_ROLE ( 'creator' ) ;
#80 = CC_DESIGN_PERSON_AND_ORGANIZATION_ASSIGNMENT ( #180, #79, ( #224 ) ) ;
#81 = EDGE_LOOP ( 'NONE', ( #145 ) ) ;
#82 = SECURITY_CLASSIFICATION ( '', '', #36 ) ;
#83 = PLANE ( 'NONE',  #170 ) ;
#84 = EDGE_LOOP ( 'NONE', ( #101 ) ) ;
#85 = LOCAL_TIME ( 11, 3, 51.00000000000000000, #207 ) ;
#86 = COORDINATED_UNIVERSAL_TIME_OFFSET ( 1, 0, .AHEAD. ) ;
#87 = FACE_OUTER_BOUND ( 'NONE', #51, .T. ) ;
#88 = CIRCLE ( 'NONE', #26, 2.683999999999999719 ) ;
#89 = PLANE ( 'NONE',  #12 ) ;
#90 = DIRECTION ( 'NONE',  ( 1.815739402122349922E-30, -1.000000000000000000, 5.200484338615931765E-16 ) ) ;
#91 = PERSON_AND_ORGANIZATION ( #210, #92 ) ;
#92 = ORGANIZATION ( 'UNSPECIFIED', 'UNSPECIFIED', '' ) ;
#93 = DIRECTION ( 'NONE',  ( -1.815739402122350272E-30, 1.000000000000000000, -5.200484338615931765E-16 ) ) ;
#94 = APPROVAL_ROLE ( '' ) ;
#95 = CALENDAR_DATE ( 2021, 26, 11 ) ;
#96 = EDGE_LOOP ( 'NONE', ( #8 ) ) ;
#97 = CARTESIAN_POINT ( 'NONE',  ( 4.454117502258965109E-30, 6.634309642487699012E-31, 1.275709955171861616E-15 ) ) ;
#98 = AXIS2_PLACEMENT_3D ( 'NONE', #129, #68, #70 ) ;
#99 = DIRECTION ( 'NONE',  ( -2.296190693755280559E-30, 1.000000000000000000, -6.463202220479926389E-16 ) ) ;
#100 = ORIENTED_EDGE ( 'NONE', *, *, #134, .F. ) ;
#101 = ORIENTED_EDGE ( 'NONE', *, *, #44, .T. ) ;
#102 = DIRECTION ( 'NONE',  ( -3.491481338843133355E-15, 9.031770143711729009E-17, -1.000000000000000000 ) ) ;
#103 = VERTEX_POINT ( 'NONE', #232 ) ;
#104 = APPROVAL_PERSON_ORGANIZATION ( #135, #167, #151 ) ;
#105 = ORIENTED_EDGE ( 'NONE', *, *, #186, .T. ) ;
#106 = VERTEX_POINT ( 'NONE', #234 ) ;
#107 = CC_DESIGN_PERSON_AND_ORGANIZATION_ASSIGNMENT ( #91, #56, ( #109 ) ) ;
#108 = FACE_OUTER_BOUND ( 'NONE', #153, .T. ) ;
#109 = PRODUCT ( '321440', '321440', '', ( #17 ) ) ;
#110 = PERSON_AND_ORGANIZATION ( #210, #92 ) ;
#111 = PERSON_AND_ORGANIZATION ( #210, #92 ) ;
#112 = DIRECTION ( 'NONE',  ( -3.491481338843133355E-15, -5.200484338615931765E-16, -1.000000000000000000 ) ) ;
#113 = EDGE_CURVE ( 'NONE', #214, #214, #164, .T. ) ;
#114 = LOCAL_TIME ( 11, 3, 51.00000000000000000, #55 ) ;
#115 = CONICAL_SURFACE ( 'NONE', #216, 2.453059892324148006, 0.5235987755982978165 ) ;
#116 = CC_DESIGN_PERSON_AND_ORGANIZATION_ASSIGNMENT ( #194, #22, ( #205 ) ) ;
#117 = CARTESIAN_POINT ( 'NONE',  ( 4.471587521792824818E-14, 6.660330850726850661E-15, 12.80713567632711225 ) ) ;
#118 = CC_DESIGN_APPROVAL ( #167, ( #205 ) ) ;
#119 = CC_DESIGN_DATE_AND_TIME_ASSIGNMENT ( #152, #42, ( #205 ) ) ;
#120 = ORIENTED_EDGE ( 'NONE', *, *, #134, .T. ) ;
#121 = CONICAL_SURFACE ( 'NONE', #182, 1.999999999999995337, 0.7853981633974516097 ) ;
#122 = DIRECTION ( 'NONE',  ( 0.0000000000000000000, 1.000000000000000000, 0.0000000000000000000 ) ) ;
#123 = AXIS2_PLACEMENT_3D ( 'NONE', #34, #200, #190 ) ;
#124 = CALENDAR_DATE ( 2021, 26, 11 ) ;
#125 = CARTESIAN_POINT ( 'NONE',  ( 4.471587521792824187E-14, -1.156711056279165196E-15, 12.80713567632711225 ) ) ;
#126 = DESIGN_CONTEXT ( 'detailed design', #75, 'design' ) ;
#127 = PLANE ( 'NONE',  #98 ) ;
#128 = LOCAL_TIME ( 11, 3, 51.00000000000000000, #236 ) ;
#129 = CARTESIAN_POINT ( 'NONE',  ( -2.227058751129482554E-30, 2.453059892324148006, -6.378549775859308079E-16 ) ) ;
#130 = DATE_AND_TIME ( #139, #114 ) ;
#131 = COORDINATED_UNIVERSAL_TIME_OFFSET ( 1, 0, .AHEAD. ) ;
#132 = CARTESIAN_POINT ( 'NONE',  ( 4.471587521792824187E-14, -1.156711056279165196E-15, 12.80713567632711225 ) ) ;
#133 = DIRECTION ( 'NONE',  ( -3.491481338843133355E-15, 9.031770143711729009E-17, -1.000000000000000000 ) ) ;
#134 = EDGE_CURVE ( 'NONE', #235, #235, #176, .T. ) ;
#135 = PERSON_AND_ORGANIZATION ( #210, #92 ) ;
#136 = EDGE_LOOP ( 'NONE', ( #31 ) ) ;
#137 = AXIS2_PLACEMENT_3D ( 'NONE', #159, #141, #140 ) ;
#138 = APPROVAL_STATUS ( 'not_yet_approved' ) ;
#139 = CALENDAR_DATE ( 2021, 26, 11 ) ;
#140 = DIRECTION ( 'NONE',  ( 0.0000000000000000000, 1.000000000000000000, 0.0000000000000000000 ) ) ;
#141 = DIRECTION ( 'NONE',  ( -3.491481338843133355E-15, 9.031770143711729009E-17, -1.000000000000000000 ) ) ;
#142 = AXIS2_PLACEMENT_3D ( 'NONE', #71, #112, #93 ) ;
#143 = ADVANCED_FACE ( 'NONE', ( #211 ), #127, .T. ) ;
#144 = ORIENTED_EDGE ( 'NONE', *, *, #28, .T. ) ;
#145 = ORIENTED_EDGE ( 'NONE', *, *, #113, .T. ) ;
#146 = DIRECTION ( 'NONE',  ( -3.491481338843133355E-15, 9.031770143711729009E-17, -1.000000000000000000 ) ) ;
#147 = CC_DESIGN_PERSON_AND_ORGANIZATION_ASSIGNMENT ( #7, #41, ( #224 ) ) ;
#148 = CARTESIAN_POINT ( 'NONE',  ( 2.793185071074506684E-13, 1.599999999999987876, 80.00000000000000000 ) ) ;
#149 = VERTEX_POINT ( 'NONE', #52 ) ;
#150 = CONICAL_SURFACE ( 'NONE', #242, 2.683999999999999719, 0.5235987755982934866 ) ;
#151 = APPROVAL_ROLE ( '' ) ;
#152 = DATE_AND_TIME ( #208, #128 ) ;
#153 = EDGE_LOOP ( 'NONE', ( #105 ) ) ;
#154 = FACE_OUTER_BOUND ( 'NONE', #160, .T. ) ;
#155 = ADVANCED_FACE ( 'NONE', ( #203, #40 ), #150, .T. ) ;
#156 = FACE_OUTER_BOUND ( 'NONE', #198, .T. ) ;
#157 = CARTESIAN_POINT ( 'NONE',  ( 0.0000000000000000000, 0.0000000000000000000, 0.0000000000000000000 ) ) ;
#158 = AXIS2_PLACEMENT_3D ( 'NONE', #173, #228, #10 ) ;
#159 = CARTESIAN_POINT ( 'NONE',  ( 4.885231259955590439E-14, -1.263712492114123682E-15, 13.99185842870425134 ) ) ;
#160 = EDGE_LOOP ( 'NONE', ( #188 ) ) ;
#161 = ADVANCED_FACE ( 'NONE', ( #108, #49 ), #202, .T. ) ;
#162 = CC_DESIGN_APPROVAL ( #213, ( #82 ) ) ;
#163 = CARTESIAN_POINT ( 'NONE',  ( 4.471587521792824818E-14, 2.683999999999998387, 12.80713567632711225 ) ) ;
#164 = CIRCLE ( 'NONE', #78, 2.683999999999992170 ) ;
#165 =( LENGTH_UNIT ( ) NAMED_UNIT ( * ) SI_UNIT ( .MILLI., .METRE. ) );
#166 = PLANE ( 'NONE',  #30 ) ;
#167 = APPROVAL ( #138, 'UNSPECIFIED' ) ;
#168 = DATE_TIME_ROLE ( 'classification_date' ) ;
#169 = DIRECTION ( 'NONE',  ( 0.0000000000000000000, 1.000000000000000000, 0.0000000000000000000 ) ) ;
#170 = AXIS2_PLACEMENT_3D ( 'NONE', #163, #102, #46 ) ;
#171 = CARTESIAN_POINT ( 'NONE',  ( 2.793185071074506684E-13, -7.225416114969383207E-15, 80.00000000000000000 ) ) ;
#172 = PRODUCT_DEFINITION_SHAPE ( 'NONE', 'NONE',  #205 ) ;
#173 = CARTESIAN_POINT ( 'NONE',  ( 1.396592535537258075E-15, 2.080193735446379757E-16, 0.4000000000000013545 ) ) ;
#174 = APPLICATION_CONTEXT ( 'configuration controlled 3d designs of mechanical parts and assemblies' ) ;
#175 = SHAPE_DEFINITION_REPRESENTATION ( #172, #218 ) ;
#176 = CIRCLE ( 'NONE', #63, 2.453059892324148006 ) ;
#177 = DATE_AND_TIME ( #95, #185 ) ;
#178 = DIRECTION ( 'NONE',  ( -3.491481338843133355E-15, 9.031770143711729009E-17, -1.000000000000000000 ) ) ;
#179 = CC_DESIGN_PERSON_AND_ORGANIZATION_ASSIGNMENT ( #110, #192, ( #82 ) ) ;
#180 = PERSON_AND_ORGANIZATION ( #210, #92 ) ;
#181 = FACE_BOUND ( 'NONE', #4, .T. ) ;
#182 = AXIS2_PLACEMENT_3D ( 'NONE', #221, #178, #59 ) ;
#183 = EDGE_LOOP ( 'NONE', ( #25 ) ) ;
#184 = VERTEX_POINT ( 'NONE', #6 ) ;
#185 = LOCAL_TIME ( 11, 3, 51.00000000000000000, #131 ) ;
#186 = EDGE_CURVE ( 'NONE', #149, #149, #233, .T. ) ;
#187 = FACE_OUTER_BOUND ( 'NONE', #96, .T. ) ;
#188 = ORIENTED_EDGE ( 'NONE', *, *, #186, .F. ) ;
#189 = DIRECTION ( 'NONE',  ( 3.491481338843133355E-15, -9.031770143711729009E-17, 1.000000000000000000 ) ) ;
#190 = DIRECTION ( 'NONE',  ( 3.153425691349006731E-31, 1.000000000000000000, 9.031770143711729009E-17 ) ) ;
#191 = DIRECTION ( 'NONE',  ( -3.153425691349006731E-31, -1.000000000000000000, -9.031770143711729009E-17 ) ) ;
#192 = PERSON_AND_ORGANIZATION_ROLE ( 'classification_officer' ) ;
#193 = APPLICATION_PROTOCOL_DEFINITION ( 'international standard', 'config_control_design', 1994, #75 ) ;
#194 = PERSON_AND_ORGANIZATION ( #210, #92 ) ;
#195 = APPROVAL_DATE_TIME ( #220, #167 ) ;
#196 = AXIS2_PLACEMENT_3D ( 'NONE', #212, #39, #122 ) ;
#197 = FACE_OUTER_BOUND ( 'NONE', #81, .T. ) ;
#198 = EDGE_LOOP ( 'NONE', ( #66 ) ) ;
#199 = CC_DESIGN_DATE_AND_TIME_ASSIGNMENT ( #9, #168, ( #82 ) ) ;
#200 = DIRECTION ( 'NONE',  ( -3.491481338843133355E-15, 9.031770143711729009E-17, -1.000000000000000000 ) ) ;
#201 = ORIENTED_EDGE ( 'NONE', *, *, #44, .F. ) ;
#202 = CYLINDRICAL_SURFACE ( 'NONE', #123, 1.999999999999993561 ) ;
#203 = FACE_BOUND ( 'NONE', #84, .T. ) ;
#204 =( NAMED_UNIT ( * ) SI_UNIT ( $, .STERADIAN. ) SOLID_ANGLE_UNIT ( ) );
#205 = PRODUCT_DEFINITION ( 'UNKNOWN', '', #224, #126 ) ;
#206 = DIRECTION ( 'NONE',  ( 0.0000000000000000000, 1.000000000000000000, 0.0000000000000000000 ) ) ;
#207 = COORDINATED_UNIVERSAL_TIME_OFFSET ( 1, 0, .AHEAD. ) ;
#208 = CALENDAR_DATE ( 2021, 26, 11 ) ;
#209 = AXIS2_PLACEMENT_3D ( 'NONE', #157, #240, #60 ) ;
#210 = PERSON ( 'UNSPECIFIED', 'UNSPECIFIED', 'UNSPECIFIED', ('UNSPECIFIED'), ('UNSPECIFIED'), ('UNSPECIFIED') ) ;
#211 = FACE_OUTER_BOUND ( 'NONE', #35, .T. ) ;
#212 = CARTESIAN_POINT ( 'NONE',  ( 2.779219145719134403E-13, -7.189289034394536528E-15, 79.60000000000000853 ) ) ;
#213 = APPROVAL ( #18, 'UNSPECIFIED' ) ;
#214 = VERTEX_POINT ( 'NONE', #13 ) ;
#215 = UNCERTAINTY_MEASURE_WITH_UNIT (LENGTH_MEASURE( 1.000000000000000082E-05 ), #165, 'distance_accuracy_value', 'NONE');
#216 = AXIS2_PLACEMENT_3D ( 'NONE', #241, #243, #62 ) ;
#217 = APPROVAL_PERSON_ORGANIZATION ( #111, #213, #94 ) ;
#218 = ADVANCED_BREP_SHAPE_REPRESENTATION ( '321440', ( #67, #225, #209 ), #227 ) ;
#219 = APPROVAL_ROLE ( '' ) ;
#220 = DATE_AND_TIME ( #19, #85 ) ;
#221 = CARTESIAN_POINT ( 'NONE',  ( 2.779219145719134403E-13, -7.189289034394536528E-15, 79.60000000000000853 ) ) ;
#222 =( NAMED_UNIT ( * ) PLANE_ANGLE_UNIT ( ) SI_UNIT ( $, .RADIAN. ) );
#223 = ADVANCED_FACE ( 'NONE', ( #87 ), #89, .T. ) ;
#224 = PRODUCT_DEFINITION_FORMATION_WITH_SPECIFIED_SOURCE ( 'ANY', '', #109, .NOT_KNOWN. ) ;
#225 = MANIFOLD_SOLID_BREP ( 'Corps-Déplacer/Copier1[2]', #47 ) ;
#226 = DIRECTION ( 'NONE',  ( -1.815739402122350272E-30, 1.000000000000000000, -5.200484338615931765E-16 ) ) ;
#227 =( GEOMETRIC_REPRESENTATION_CONTEXT ( 3 ) GLOBAL_UNCERTAINTY_ASSIGNED_CONTEXT ( ( #215 ) ) GLOBAL_UNIT_ASSIGNED_CONTEXT ( ( #165, #222, #204 ) ) REPRESENTATION_CONTEXT ( 'NONE', 'WORKASPACE' ) );
#228 = DIRECTION ( 'NONE',  ( -3.491481338843133355E-15, -5.200484338615931765E-16, -1.000000000000000000 ) ) ;
#229 = DIRECTION ( 'NONE',  ( 3.491481338843133355E-15, 5.200484338615931765E-16, 1.000000000000000000 ) ) ;
#230 = ORIENTED_EDGE ( 'NONE', *, *, #28, .F. ) ;
#231 = ADVANCED_FACE ( 'NONE', ( #187 ), #166, .T. ) ;
#232 = CARTESIAN_POINT ( 'NONE',  ( 4.471587521792824187E-14, 2.683999999999998387, 12.80713567632711225 ) ) ;
#233 = CIRCLE ( 'NONE', #196, 1.999999999999995337 ) ;
#234 = CARTESIAN_POINT ( 'NONE',  ( 4.885231259955590439E-14, 1.999999999999990452, 13.99185842870425134 ) ) ;
#235 = VERTEX_POINT ( 'NONE', #73 ) ;
#236 = COORDINATED_UNIVERSAL_TIME_OFFSET ( 1, 0, .AHEAD. ) ;
#237 = EDGE_CURVE ( 'NONE', #184, #184, #5, .T. ) ;
#238 = CC_DESIGN_APPROVAL ( #23, ( #224 ) ) ;
#239 = APPROVAL_DATE_TIME ( #177, #23 ) ;
#240 = DIRECTION ( 'NONE',  ( 0.0000000000000000000, 0.0000000000000000000, 1.000000000000000000 ) ) ;
#241 = CARTESIAN_POINT ( 'NONE',  ( 4.454117502258965109E-30, 6.634309642487699012E-31, 1.275709955171861616E-15 ) ) ;
#242 = AXIS2_PLACEMENT_3D ( 'NONE', #125, #48, #169 ) ;
#243 = DIRECTION ( 'NONE',  ( 3.491481338843133355E-15, 5.200484338615931765E-16, 1.000000000000000000 ) ) ;
ENDSEC;
END-ISO-10303-21;
