ISO-10303-21;
HEADER;
FILE_DESCRIPTION (( 'STEP AP203' ),
    '1' );
FILE_NAME ('321439.step',
    '2021-11-26T10:03:50',
    ( '' ),
    ( '' ),
    'SwSTEP 2.0',
    'SolidWorks 2019',
    '' );
FILE_SCHEMA (( 'CONFIG_CONTROL_DESIGN' ));
ENDSEC;

DATA;
#1 = FACE_OUTER_BOUND ( 'NONE', #242, .T. ) ;
#2 = ORGANIZATION ( 'UNSPECIFIED', 'UNSPECIFIED', '' ) ;
#3 = FACE_OUTER_BOUND ( 'NONE', #196, .T. ) ;
#4 = COORDINATED_UNIVERSAL_TIME_OFFSET ( 1, 0, .AHEAD. ) ;
#5 = PLANE ( 'NONE',  #205 ) ;
#6 = DIRECTION ( 'NONE',  ( 0.0000000000000000000, 1.000000000000000000, 0.0000000000000000000 ) ) ;
#7 = APPLICATION_CONTEXT ( 'configuration controlled 3d designs of mechanical parts and assemblies' ) ;
#8 = PLANE ( 'NONE',  #158 ) ;
#9 = VERTEX_POINT ( 'NONE', #73 ) ;
#10 = APPLICATION_PROTOCOL_DEFINITION ( 'international standard', 'config_control_design', 1994, #7 ) ;
#11 = CC_DESIGN_SECURITY_CLASSIFICATION ( #115, ( #145 ) ) ;
#12 = LOCAL_TIME ( 11, 3, 50.00000000000000000, #14 ) ;
#13 = APPROVAL ( #78, 'UNSPECIFIED' ) ;
#14 = COORDINATED_UNIVERSAL_TIME_OFFSET ( 1, 0, .AHEAD. ) ;
#15 = CALENDAR_DATE ( 2021, 26, 11 ) ;
#16 = CARTESIAN_POINT ( 'NONE',  ( 2.779219145719134403E-13, -7.189289034394536528E-15, 79.60000000000000853 ) ) ;
#17 = APPROVAL_DATE_TIME ( #195, #13 ) ;
#18 = DIRECTION ( 'NONE',  ( 3.153425691349006731E-31, 1.000000000000000000, 9.031770143711729009E-17 ) ) ;
#19 = DIRECTION ( 'NONE',  ( 0.0000000000000000000, 1.000000000000000000, 0.0000000000000000000 ) ) ;
#20 = AXIS2_PLACEMENT_3D ( 'NONE', #86, #50, #168 ) ;
#21 = ORIENTED_EDGE ( 'NONE', *, *, #228, .T. ) ;
#22 = DIRECTION ( 'NONE',  ( -1.813934541782541896E-30, 1.000000000000000000, -5.195315013150178262E-16 ) ) ;
#23 = EDGE_CURVE ( 'NONE', #188, #188, #108, .T. ) ;
#24 = ORIENTED_EDGE ( 'NONE', *, *, #192, .T. ) ;
#25 = CARTESIAN_POINT ( 'NONE',  ( 4.474611233329102322E-14, 2.678999999999998050, 12.81579593036495623 ) ) ;
#26 = FACE_OUTER_BOUND ( 'NONE', #154, .T. ) ;
#27 = ADVANCED_FACE ( 'NONE', ( #3, #43 ), #193, .T. ) ;
#28 = PERSON_AND_ORGANIZATION ( #178, #2 ) ;
#29 = APPROVAL_ROLE ( '' ) ;
#30 = ORIENTED_EDGE ( 'NONE', *, *, #52, .T. ) ;
#31 = CIRCLE ( 'NONE', #140, 2.678999999999999382 ) ;
#32 = ORIENTED_EDGE ( 'NONE', *, *, #52, .F. ) ;
#33 = CARTESIAN_POINT ( 'NONE',  ( 4.885231259955590439E-14, 1.999999999999990452, 13.99185842870425134 ) ) ;
#34 = APPROVAL ( #223, 'UNSPECIFIED' ) ;
#35 = PERSON_AND_ORGANIZATION ( #178, #2 ) ;
#36 = CIRCLE ( 'NONE', #144, 1.599999999999994982 ) ;
#37 = FACE_BOUND ( 'NONE', #214, .T. ) ;
#38 = CARTESIAN_POINT ( 'NONE',  ( -2.220310199519610837E-30, 2.448059892324148112, -6.359221155841228065E-16 ) ) ;
#39 = DATE_TIME_ROLE ( 'creation_date' ) ;
#40 = DIRECTION ( 'NONE',  ( 1.813934541782541545E-30, -1.000000000000000000, 5.195315013150178262E-16 ) ) ;
#41 = PERSON_AND_ORGANIZATION ( #178, #2 ) ;
#42 = LOCAL_TIME ( 11, 3, 50.00000000000000000, #121 ) ;
#43 = FACE_BOUND ( 'NONE', #92, .T. ) ;
#44 = CARTESIAN_POINT ( 'NONE',  ( 4.474611233329102322E-14, 6.658209700249402939E-15, 12.81579593036495623 ) ) ;
#45 = DIRECTION ( 'NONE',  ( 0.0000000000000000000, 1.000000000000000000, 0.0000000000000000000 ) ) ;
#46 = CLOSED_SHELL ( 'NONE', ( #185, #147, #27, #100 ) ) ;
#47 = AXIS2_PLACEMENT_3D ( 'NONE', #148, #172, #6 ) ;
#48 = DIRECTION ( 'NONE',  ( -3.491481338843133355E-15, 9.031770143711729009E-17, -1.000000000000000000 ) ) ;
#49 = ORIENTED_EDGE ( 'NONE', *, *, #176, .T. ) ;
#50 = DIRECTION ( 'NONE',  ( -3.491481338843133355E-15, 9.031770143711729009E-17, -1.000000000000000000 ) ) ;
#51 = CC_DESIGN_APPROVAL ( #139, ( #115 ) ) ;
#52 = EDGE_CURVE ( 'NONE', #201, #201, #36, .T. ) ;
#53 = EDGE_LOOP ( 'NONE', ( #167 ) ) ;
#54 = DIRECTION ( 'NONE',  ( 0.0000000000000000000, 0.0000000000000000000, 1.000000000000000000 ) ) ;
#55 = ORIENTED_EDGE ( 'NONE', *, *, #162, .F. ) ;
#56 = ADVANCED_FACE ( 'NONE', ( #119, #210 ), #136, .T. ) ;
#57 = APPROVAL_DATE_TIME ( #70, #34 ) ;
#58 = AXIS2_PLACEMENT_3D ( 'NONE', #199, #106, #218 ) ;
#59 = LOCAL_TIME ( 11, 3, 50.00000000000000000, #4 ) ;
#60 = FACE_BOUND ( 'NONE', #219, .T. ) ;
#61 = FACE_OUTER_BOUND ( 'NONE', #87, .T. ) ;
#62 = MANIFOLD_SOLID_BREP ( 'Corps-Déplacer/Copier1[1]', #213 ) ;
#63 = FACE_OUTER_BOUND ( 'NONE', #159, .T. ) ;
#64 = DIRECTION ( 'NONE',  ( 3.491481338843133355E-15, 5.195315013150179248E-16, 1.000000000000000000 ) ) ;
#65 = EDGE_LOOP ( 'NONE', ( #32 ) ) ;
#66 = VERTEX_POINT ( 'NONE', #200 ) ;
#67 = AXIS2_PLACEMENT_3D ( 'NONE', #82, #235, #146 ) ;
#68 = APPROVAL_PERSON_ORGANIZATION ( #41, #13, #212 ) ;
#69 = PERSON_AND_ORGANIZATION ( #178, #2 ) ;
#70 = DATE_AND_TIME ( #173, #99 ) ;
#71 = ADVANCED_FACE ( 'NONE', ( #37, #98 ), #217, .T. ) ;
#72 = CC_DESIGN_DATE_AND_TIME_ASSIGNMENT ( #177, #39, ( #134 ) ) ;
#73 = CARTESIAN_POINT ( 'NONE',  ( 1.396592535537253342E-15, 2.678999999999997605, 0.3999999999999999667 ) ) ;
#74 = PERSON_AND_ORGANIZATION_ROLE ( 'creator' ) ;
#75 = PRODUCT_RELATED_PRODUCT_CATEGORY ( 'detail', '', ( #191 ) ) ;
#76 = DESIGN_CONTEXT ( 'detailed design', #7, 'design' ) ;
#77 = DIRECTION ( 'NONE',  ( -3.491481338843133355E-15, -5.195315013150179248E-16, -1.000000000000000000 ) ) ;
#78 = APPROVAL_STATUS ( 'not_yet_approved' ) ;
#79 = CARTESIAN_POINT ( 'NONE',  ( 4.440620399039221674E-30, 6.607631428576834442E-31, 1.271844231168245613E-15 ) ) ;
#80 = DATE_AND_TIME ( #231, #59 ) ;
#81 = AXIS2_PLACEMENT_3D ( 'NONE', #209, #123, #18 ) ;
#82 = CARTESIAN_POINT ( 'NONE',  ( 0.0000000000000000000, 0.0000000000000000000, 0.0000000000000000000 ) ) ;
#83 = CARTESIAN_POINT ( 'NONE',  ( 1.396592535537258075E-15, 2.078126005260078848E-16, 0.4000000000000013545 ) ) ;
#84 = EDGE_LOOP ( 'NONE', ( #49 ) ) ;
#85 = CC_DESIGN_PERSON_AND_ORGANIZATION_ASSIGNMENT ( #229, #96, ( #145 ) ) ;
#86 = CARTESIAN_POINT ( 'NONE',  ( 4.885231259955590439E-14, -1.263712492114123682E-15, 13.99185842870425134 ) ) ;
#87 = EDGE_LOOP ( 'NONE', ( #164 ) ) ;
#88 = AXIS2_PLACEMENT_3D ( 'NONE', #16, #230, #19 ) ;
#89 = FACE_OUTER_BOUND ( 'NONE', #65, .T. ) ;
#90 = EDGE_LOOP ( 'NONE', ( #227 ) ) ;
#91 = CARTESIAN_POINT ( 'NONE',  ( 2.793185071074506684E-13, 1.599999999999987876, 80.00000000000000000 ) ) ;
#92 = EDGE_LOOP ( 'NONE', ( #55 ) ) ;
#93 =( LENGTH_UNIT ( ) NAMED_UNIT ( * ) SI_UNIT ( .MILLI., .METRE. ) );
#94 = AXIS2_PLACEMENT_3D ( 'NONE', #44, #77, #211 ) ;
#95 = CONICAL_SURFACE ( 'NONE', #47, 2.678999999999999382, 0.5235987755982929315 ) ;
#96 = PERSON_AND_ORGANIZATION_ROLE ( 'creator' ) ;
#97 = PERSON_AND_ORGANIZATION ( #178, #2 ) ;
#98 = FACE_OUTER_BOUND ( 'NONE', #90, .T. ) ;
#99 = LOCAL_TIME ( 11, 3, 50.00000000000000000, #190 ) ;
#100 = ADVANCED_FACE ( 'NONE', ( #1 ), #225, .T. ) ;
#101 = CC_DESIGN_PERSON_AND_ORGANIZATION_ASSIGNMENT ( #35, #125, ( #145 ) ) ;
#102 = CIRCLE ( 'NONE', #58, 1.999999999999995337 ) ;
#103 = CC_DESIGN_APPROVAL ( #13, ( #145 ) ) ;
#104 = CARTESIAN_POINT ( 'NONE',  ( 2.793185071074506684E-13, -7.225416114969383207E-15, 80.00000000000000000 ) ) ;
#105 = ORIENTED_EDGE ( 'NONE', *, *, #162, .T. ) ;
#106 = DIRECTION ( 'NONE',  ( -3.491481338843133355E-15, 9.031770143711729009E-17, -1.000000000000000000 ) ) ;
#107 = CYLINDRICAL_SURFACE ( 'NONE', #67, 2.678999999999994941 ) ;
#108 = CIRCLE ( 'NONE', #94, 2.678999999999991832 ) ;
#109 = FACE_OUTER_BOUND ( 'NONE', #131, .T. ) ;
#110 = CC_DESIGN_PERSON_AND_ORGANIZATION_ASSIGNMENT ( #28, #112, ( #191 ) ) ;
#111 = APPLICATION_PROTOCOL_DEFINITION ( 'international standard', 'config_control_design', 1994, #240 ) ;
#112 = PERSON_AND_ORGANIZATION_ROLE ( 'design_owner' ) ;
#113 = DIRECTION ( 'NONE',  ( 1.000000000000000000, 0.0000000000000000000, 0.0000000000000000000 ) ) ;
#114 = AXIS2_PLACEMENT_3D ( 'NONE', #170, #182, #22 ) ;
#115 = SECURITY_CLASSIFICATION ( '', '', #198 ) ;
#116 = CC_DESIGN_PERSON_AND_ORGANIZATION_ASSIGNMENT ( #117, #181, ( #115 ) ) ;
#117 = PERSON_AND_ORGANIZATION ( #178, #2 ) ;
#118 = AXIS2_PLACEMENT_3D ( 'NONE', #104, #128, #216 ) ;
#119 = FACE_OUTER_BOUND ( 'NONE', #84, .T. ) ;
#120 = DIRECTION ( 'NONE',  ( -3.491481338843133355E-15, -5.195315013150179248E-16, -1.000000000000000000 ) ) ;
#121 = COORDINATED_UNIVERSAL_TIME_OFFSET ( 1, 0, .AHEAD. ) ;
#122 = ADVANCED_FACE ( 'NONE', ( #89 ), #215, .T. ) ;
#123 = DIRECTION ( 'NONE',  ( -3.491481338843133355E-15, 9.031770143711729009E-17, -1.000000000000000000 ) ) ;
#124 = CIRCLE ( 'NONE', #20, 1.999999999999991784 ) ;
#125 = PERSON_AND_ORGANIZATION_ROLE ( 'design_supplier' ) ;
#126 = CARTESIAN_POINT ( 'NONE',  ( 2.793185071074506684E-13, -7.225416114969383207E-15, 80.00000000000000000 ) ) ;
#127 = DIRECTION ( 'NONE',  ( -3.491481338843133355E-15, 9.031770143711729009E-17, -1.000000000000000000 ) ) ;
#128 = DIRECTION ( 'NONE',  ( 3.491481338843133355E-15, -9.031770143711729009E-17, 1.000000000000000000 ) ) ;
#129 = PRODUCT_DEFINITION_SHAPE ( 'NONE', 'NONE',  #134 ) ;
#130 = CARTESIAN_POINT ( 'NONE',  ( 4.474611233329101691E-14, 2.678999999999998050, 12.81579593036495446 ) ) ;
#131 = EDGE_LOOP ( 'NONE', ( #156 ) ) ;
#132 = DIRECTION ( 'NONE',  ( 1.813934541782541896E-30, -1.000000000000000000, 5.195315013150179248E-16 ) ) ;
#133 = APPROVAL_DATE_TIME ( #153, #139 ) ;
#134 = PRODUCT_DEFINITION ( 'UNKNOWN', '', #145, #76 ) ;
#135 = CALENDAR_DATE ( 2021, 26, 11 ) ;
#136 = CYLINDRICAL_SURFACE ( 'NONE', #81, 1.999999999999993561 ) ;
#137 = CALENDAR_DATE ( 2021, 26, 11 ) ;
#138 = ORIENTED_EDGE ( 'NONE', *, *, #192, .F. ) ;
#139 = APPROVAL ( #160, 'UNSPECIFIED' ) ;
#140 = AXIS2_PLACEMENT_3D ( 'NONE', #166, #48, #45 ) ;
#141 = APPROVAL_PERSON_ORGANIZATION ( #142, #139, #194 ) ;
#142 = PERSON_AND_ORGANIZATION ( #178, #2 ) ;
#143 = DIRECTION ( 'NONE',  ( 3.153425691349006731E-31, 1.000000000000000000, 9.031770143711729009E-17 ) ) ;
#144 = AXIS2_PLACEMENT_3D ( 'NONE', #126, #161, #224 ) ;
#145 = PRODUCT_DEFINITION_FORMATION_WITH_SPECIFIED_SOURCE ( 'ANY', '', #191, .NOT_KNOWN. ) ;
#146 = DIRECTION ( 'NONE',  ( -1.813934541782541896E-30, 1.000000000000000000, -5.195315013150179248E-16 ) ) ;
#147 = ADVANCED_FACE ( 'NONE', ( #63, #26 ), #107, .T. ) ;
#148 = CARTESIAN_POINT ( 'NONE',  ( 4.474611233329101691E-14, -1.157493230517724886E-15, 12.81579593036495446 ) ) ;
#149 = ADVANCED_FACE ( 'NONE', ( #203 ), #5, .T. ) ;
#150 = ORIENTED_EDGE ( 'NONE', *, *, #23, .T. ) ;
#151 = VERTEX_POINT ( 'NONE', #220 ) ;
#152 = AXIS2_PLACEMENT_3D ( 'NONE', #79, #243, #40 ) ;
#153 = DATE_AND_TIME ( #15, #12 ) ;
#154 = EDGE_LOOP ( 'NONE', ( #138 ) ) ;
#155 =( NAMED_UNIT ( * ) SI_UNIT ( $, .STERADIAN. ) SOLID_ANGLE_UNIT ( ) );
#156 = ORIENTED_EDGE ( 'NONE', *, *, #23, .F. ) ;
#157 =( NAMED_UNIT ( * ) PLANE_ANGLE_UNIT ( ) SI_UNIT ( $, .RADIAN. ) );
#158 = AXIS2_PLACEMENT_3D ( 'NONE', #233, #64, #132 ) ;
#159 = EDGE_LOOP ( 'NONE', ( #150 ) ) ;
#160 = APPROVAL_STATUS ( 'not_yet_approved' ) ;
#161 = DIRECTION ( 'NONE',  ( -3.491481338843133355E-15, 9.031770143711729009E-17, -1.000000000000000000 ) ) ;
#162 = EDGE_CURVE ( 'NONE', #66, #66, #208, .T. ) ;
#163 = DATE_TIME_ROLE ( 'classification_date' ) ;
#164 = ORIENTED_EDGE ( 'NONE', *, *, #169, .F. ) ;
#165 = AXIS2_PLACEMENT_3D ( 'NONE', #204, #54, #113 ) ;
#166 = CARTESIAN_POINT ( 'NONE',  ( 4.474611233329101691E-14, -1.157493230517724886E-15, 12.81579593036495446 ) ) ;
#167 = ORIENTED_EDGE ( 'NONE', *, *, #228, .F. ) ;
#168 = DIRECTION ( 'NONE',  ( 0.0000000000000000000, 1.000000000000000000, 0.0000000000000000000 ) ) ;
#169 = EDGE_CURVE ( 'NONE', #186, #186, #31, .T. ) ;
#170 = CARTESIAN_POINT ( 'NONE',  ( 4.440620399039221674E-30, 6.607631428576834442E-31, 1.271844231168245613E-15 ) ) ;
#171 = ORIENTED_EDGE ( 'NONE', *, *, #169, .T. ) ;
#172 = DIRECTION ( 'NONE',  ( -3.491481338843133355E-15, 9.031770143711729009E-17, -1.000000000000000000 ) ) ;
#173 = CALENDAR_DATE ( 2021, 26, 11 ) ;
#174 = VERTEX_POINT ( 'NONE', #33 ) ;
#175 = EDGE_LOOP ( 'NONE', ( #171 ) ) ;
#176 = EDGE_CURVE ( 'NONE', #151, #151, #102, .T. ) ;
#177 = DATE_AND_TIME ( #137, #206 ) ;
#178 = PERSON ( 'UNSPECIFIED', 'UNSPECIFIED', 'UNSPECIFIED', ('UNSPECIFIED'), ('UNSPECIFIED'), ('UNSPECIFIED') ) ;
#179 = CIRCLE ( 'NONE', #202, 2.678999999999997605 ) ;
#180 = DIRECTION ( 'NONE',  ( -1.813934541782541896E-30, 1.000000000000000000, -5.195315013150179248E-16 ) ) ;
#181 = PERSON_AND_ORGANIZATION_ROLE ( 'classification_officer' ) ;
#182 = DIRECTION ( 'NONE',  ( -3.491481338843133355E-15, -5.195315013150179248E-16, -1.000000000000000000 ) ) ;
#183 = AXIS2_PLACEMENT_3D ( 'NONE', #38, #120, #180 ) ;
#184 = DIRECTION ( 'NONE',  ( -1.797247055232584452E-30, 1.000000000000000000, -5.261152759354822618E-16 ) ) ;
#185 = ADVANCED_FACE ( 'NONE', ( #109 ), #8, .T. ) ;
#186 = VERTEX_POINT ( 'NONE', #238 ) ;
#187 = APPROVAL_PERSON_ORGANIZATION ( #69, #34, #29 ) ;
#188 = VERTEX_POINT ( 'NONE', #130 ) ;
#189 = SHAPE_DEFINITION_REPRESENTATION ( #129, #237 ) ;
#190 = COORDINATED_UNIVERSAL_TIME_OFFSET ( 1, 0, .AHEAD. ) ;
#191 = PRODUCT ( '321439', '321439', '', ( #222 ) ) ;
#192 = EDGE_CURVE ( 'NONE', #9, #9, #179, .T. ) ;
#193 = CONICAL_SURFACE ( 'NONE', #152, 2.448059892324148112, 0.5235987755982978165 ) ;
#194 = APPROVAL_ROLE ( '' ) ;
#195 = DATE_AND_TIME ( #135, #42 ) ;
#196 = EDGE_LOOP ( 'NONE', ( #24 ) ) ;
#197 =( GEOMETRIC_REPRESENTATION_CONTEXT ( 3 ) GLOBAL_UNCERTAINTY_ASSIGNED_CONTEXT ( ( #241 ) ) GLOBAL_UNIT_ASSIGNED_CONTEXT ( ( #93, #157, #155 ) ) REPRESENTATION_CONTEXT ( 'NONE', 'WORKASPACE' ) );
#198 = SECURITY_CLASSIFICATION_LEVEL ( 'unclassified' ) ;
#199 = CARTESIAN_POINT ( 'NONE',  ( 2.779219145719134403E-13, -7.189289034394536528E-15, 79.60000000000000853 ) ) ;
#200 = CARTESIAN_POINT ( 'NONE',  ( -6.842277657836020854E-46, 2.448059892324148112, 0.0000000000000000000 ) ) ;
#201 = VERTEX_POINT ( 'NONE', #91 ) ;
#202 = AXIS2_PLACEMENT_3D ( 'NONE', #83, #234, #184 ) ;
#203 = FACE_OUTER_BOUND ( 'NONE', #175, .T. ) ;
#204 = CARTESIAN_POINT ( 'NONE',  ( 0.0000000000000000000, 0.0000000000000000000, 0.0000000000000000000 ) ) ;
#205 = AXIS2_PLACEMENT_3D ( 'NONE', #25, #127, #143 ) ;
#206 = LOCAL_TIME ( 11, 3, 50.00000000000000000, #226 ) ;
#207 = ADVANCED_FACE ( 'NONE', ( #60, #61 ), #95, .T. ) ;
#208 = CIRCLE ( 'NONE', #114, 2.448059892324148112 ) ;
#209 = CARTESIAN_POINT ( 'NONE',  ( 0.0000000000000000000, 0.0000000000000000000, 0.0000000000000000000 ) ) ;
#210 = FACE_OUTER_BOUND ( 'NONE', #53, .T. ) ;
#211 = DIRECTION ( 'NONE',  ( -2.300476230697713102E-30, 1.000000000000000000, -6.475264934590564947E-16 ) ) ;
#212 = APPROVAL_ROLE ( '' ) ;
#213 = CLOSED_SHELL ( 'NONE', ( #122, #71, #56, #207, #149 ) ) ;
#214 = EDGE_LOOP ( 'NONE', ( #30 ) ) ;
#215 = PLANE ( 'NONE',  #118 ) ;
#216 = DIRECTION ( 'NONE',  ( -3.153425691349006731E-31, -1.000000000000000000, -9.031770143711729009E-17 ) ) ;
#217 = CONICAL_SURFACE ( 'NONE', #88, 1.999999999999995337, 0.7853981633974516097 ) ;
#218 = DIRECTION ( 'NONE',  ( 0.0000000000000000000, 1.000000000000000000, 0.0000000000000000000 ) ) ;
#219 = EDGE_LOOP ( 'NONE', ( #21 ) ) ;
#220 = CARTESIAN_POINT ( 'NONE',  ( 2.779219145719134403E-13, 1.999999999999988010, 79.60000000000000853 ) ) ;
#221 = CC_DESIGN_DATE_AND_TIME_ASSIGNMENT ( #80, #163, ( #115 ) ) ;
#222 = MECHANICAL_CONTEXT ( 'NONE', #240, 'mechanical' ) ;
#223 = APPROVAL_STATUS ( 'not_yet_approved' ) ;
#224 = DIRECTION ( 'NONE',  ( 0.0000000000000000000, 1.000000000000000000, 0.0000000000000000000 ) ) ;
#225 = PLANE ( 'NONE',  #183 ) ;
#226 = COORDINATED_UNIVERSAL_TIME_OFFSET ( 1, 0, .AHEAD. ) ;
#227 = ORIENTED_EDGE ( 'NONE', *, *, #176, .F. ) ;
#228 = EDGE_CURVE ( 'NONE', #174, #174, #124, .T. ) ;
#229 = PERSON_AND_ORGANIZATION ( #178, #2 ) ;
#230 = DIRECTION ( 'NONE',  ( -3.491481338843133355E-15, 9.031770143711729009E-17, -1.000000000000000000 ) ) ;
#231 = CALENDAR_DATE ( 2021, 26, 11 ) ;
#232 = MANIFOLD_SOLID_BREP ( 'Corps-Déplacer/Copier1[2]', #46 ) ;
#233 = CARTESIAN_POINT ( 'NONE',  ( 4.474611233329102322E-14, 6.658209700249402939E-15, 12.81579593036495623 ) ) ;
#234 = DIRECTION ( 'NONE',  ( -3.491481338843133355E-15, -5.195315013150179248E-16, -1.000000000000000000 ) ) ;
#235 = DIRECTION ( 'NONE',  ( -3.491481338843133355E-15, -5.195315013150179248E-16, -1.000000000000000000 ) ) ;
#236 = CC_DESIGN_APPROVAL ( #34, ( #134 ) ) ;
#237 = ADVANCED_BREP_SHAPE_REPRESENTATION ( '321439', ( #62, #232, #165 ), #197 ) ;
#238 = CARTESIAN_POINT ( 'NONE',  ( 4.474611233329101691E-14, 2.678999999999998050, 12.81579593036495446 ) ) ;
#239 = CC_DESIGN_PERSON_AND_ORGANIZATION_ASSIGNMENT ( #97, #74, ( #134 ) ) ;
#240 = APPLICATION_CONTEXT ( 'configuration controlled 3d designs of mechanical parts and assemblies' ) ;
#241 = UNCERTAINTY_MEASURE_WITH_UNIT (LENGTH_MEASURE( 1.000000000000000082E-05 ), #93, 'distance_accuracy_value', 'NONE');
#242 = EDGE_LOOP ( 'NONE', ( #105 ) ) ;
#243 = DIRECTION ( 'NONE',  ( 3.491481338843133355E-15, 5.195315013150179248E-16, 1.000000000000000000 ) ) ;
ENDSEC;
END-ISO-10303-21;
