ISO-10303-21;
HEADER;
FILE_DESCRIPTION (( 'STEP AP203' ),
    '1' );
FILE_NAME ('321438.step',
    '2021-11-26T10:03:49',
    ( '' ),
    ( '' ),
    'SwSTEP 2.0',
    'SolidWorks 2019',
    '' );
FILE_SCHEMA (( 'CONFIG_CONTROL_DESIGN' ));
ENDSEC;

DATA;
#1 = COORDINATED_UNIVERSAL_TIME_OFFSET ( 1, 0, .AHEAD. ) ;
#2 = AXIS2_PLACEMENT_3D ( 'NONE', #159, #82, #122 ) ;
#3 = APPROVAL_DATE_TIME ( #33, #175 ) ;
#4 = EDGE_CURVE ( 'NONE', #91, #91, #11, .T. ) ;
#5 = SECURITY_CLASSIFICATION ( '', '', #71 ) ;
#6 = PLANE ( 'NONE',  #129 ) ;
#7 = AXIS2_PLACEMENT_3D ( 'NONE', #215, #183, #237 ) ;
#8 = CARTESIAN_POINT ( 'NONE',  ( 2.793185071074506684E-13, -7.225416114969383207E-15, 80.00000000000000000 ) ) ;
#9 = VERTEX_POINT ( 'NONE', #145 ) ;
#10 = DIRECTION ( 'NONE',  ( 0.0000000000000000000, 1.000000000000000000, 0.0000000000000000000 ) ) ;
#11 = CIRCLE ( 'NONE', #89, 1.999999999999995337 ) ;
#12 = LOCAL_TIME ( 11, 3, 49.00000000000000000, #135 ) ;
#13 = FACE_OUTER_BOUND ( 'NONE', #192, .T. ) ;
#14 = EDGE_CURVE ( 'NONE', #162, #162, #74, .T. ) ;
#15 = ORIENTED_EDGE ( 'NONE', *, *, #188, .F. ) ;
#16 = APPROVAL_STATUS ( 'not_yet_approved' ) ;
#17 = PERSON_AND_ORGANIZATION_ROLE ( 'creator' ) ;
#18 = APPLICATION_CONTEXT ( 'configuration controlled 3d designs of mechanical parts and assemblies' ) ;
#19 = AXIS2_PLACEMENT_3D ( 'NONE', #231, #111, #198 ) ;
#20 = COORDINATED_UNIVERSAL_TIME_OFFSET ( 1, 0, .AHEAD. ) ;
#21 = APPROVAL_ROLE ( '' ) ;
#22 = CC_DESIGN_PERSON_AND_ORGANIZATION_ASSIGNMENT ( #219, #31, ( #44 ) ) ;
#23 = FACE_OUTER_BOUND ( 'NONE', #138, .T. ) ;
#24 = DIRECTION ( 'NONE',  ( 0.0000000000000000000, 1.000000000000000000, 0.0000000000000000000 ) ) ;
#25 = APPLICATION_PROTOCOL_DEFINITION ( 'international standard', 'config_control_design', 1994, #218 ) ;
#26 = ORIENTED_EDGE ( 'NONE', *, *, #97, .F. ) ;
#27 = DIRECTION ( 'NONE',  ( -3.491481338843133355E-15, 9.031770143711729009E-17, -1.000000000000000000 ) ) ;
#28 = DIRECTION ( 'NONE',  ( -3.491481338843133355E-15, -5.190152669293797962E-16, -1.000000000000000000 ) ) ;
#29 = CARTESIAN_POINT ( 'NONE',  ( 4.477634944865379196E-14, 6.656088549771956006E-15, 12.82445618440280199 ) ) ;
#30 = APPROVAL_ROLE ( '' ) ;
#31 = PERSON_AND_ORGANIZATION_ROLE ( 'design_supplier' ) ;
#32 = ADVANCED_FACE ( 'NONE', ( #119, #23 ), #142, .T. ) ;
#33 = DATE_AND_TIME ( #52, #161 ) ;
#34 = MECHANICAL_CONTEXT ( 'NONE', #218, 'mechanical' ) ;
#35 = PERSON_AND_ORGANIZATION_ROLE ( 'design_owner' ) ;
#36 = ADVANCED_FACE ( 'NONE', ( #60 ), #190, .T. ) ;
#37 = DIRECTION ( 'NONE',  ( -1.812132119058617069E-30, 1.000000000000000000, -5.190152669293796976E-16 ) ) ;
#38 = AXIS2_PLACEMENT_3D ( 'NONE', #29, #144, #179 ) ;
#39 = ORIENTED_EDGE ( 'NONE', *, *, #178, .T. ) ;
#40 = AXIS2_PLACEMENT_3D ( 'NONE', #83, #184, #112 ) ;
#41 = FACE_OUTER_BOUND ( 'NONE', #46, .T. ) ;
#42 = EDGE_LOOP ( 'NONE', ( #57 ) ) ;
#43 = DIRECTION ( 'NONE',  ( 0.0000000000000000000, 1.000000000000000000, 0.0000000000000000000 ) ) ;
#44 = PRODUCT_DEFINITION_FORMATION_WITH_SPECIFIED_SOURCE ( 'ANY', '', #94, .NOT_KNOWN. ) ;
#45 = FACE_OUTER_BOUND ( 'NONE', #120, .T. ) ;
#46 = EDGE_LOOP ( 'NONE', ( #224 ) ) ;
#47 = DIRECTION ( 'NONE',  ( -3.491481338843133355E-15, -5.190152669293797962E-16, -1.000000000000000000 ) ) ;
#48 = ADVANCED_FACE ( 'NONE', ( #156, #177 ), #228, .T. ) ;
#49 = DATE_AND_TIME ( #201, #12 ) ;
#50 = APPROVAL_PERSON_ORGANIZATION ( #203, #175, #187 ) ;
#51 =( NAMED_UNIT ( * ) PLANE_ANGLE_UNIT ( ) SI_UNIT ( $, .RADIAN. ) );
#52 = CALENDAR_DATE ( 2021, 26, 11 ) ;
#53 = DATE_TIME_ROLE ( 'creation_date' ) ;
#54 = DATE_AND_TIME ( #153, #158 ) ;
#55 = ADVANCED_FACE ( 'NONE', ( #164, #41 ), #69, .T. ) ;
#56 = CARTESIAN_POINT ( 'NONE',  ( 2.779219145719134403E-13, -7.189289034394536528E-15, 79.60000000000000853 ) ) ;
#57 = ORIENTED_EDGE ( 'NONE', *, *, #188, .T. ) ;
#58 = CIRCLE ( 'NONE', #221, 2.673999999999999488 ) ;
#59 = CC_DESIGN_DATE_AND_TIME_ASSIGNMENT ( #49, #53, ( #127 ) ) ;
#60 = FACE_OUTER_BOUND ( 'NONE', #42, .T. ) ;
#61 = ORIENTED_EDGE ( 'NONE', *, *, #14, .T. ) ;
#62 = APPROVAL ( #16, 'UNSPECIFIED' ) ;
#63 = AXIS2_PLACEMENT_3D ( 'NONE', #206, #47, #235 ) ;
#64 = DIRECTION ( 'NONE',  ( -3.491481338843133355E-15, 9.031770143711729009E-17, -1.000000000000000000 ) ) ;
#65 = CARTESIAN_POINT ( 'NONE',  ( -2.213573649832238306E-30, 2.443059892324148663, -6.339926910695398658E-16 ) ) ;
#66 = ORIENTED_EDGE ( 'NONE', *, *, #178, .F. ) ;
#67 = CARTESIAN_POINT ( 'NONE',  ( 4.885231259955590439E-14, -1.263712492114123682E-15, 13.99185842870425134 ) ) ;
#68 = EDGE_CURVE ( 'NONE', #230, #230, #139, .T. ) ;
#69 = CONICAL_SURFACE ( 'NONE', #7, 1.999999999999995337, 0.7853981633974516097 ) ;
#70 = EDGE_LOOP ( 'NONE', ( #100 ) ) ;
#71 = SECURITY_CLASSIFICATION_LEVEL ( 'unclassified' ) ;
#72 = CALENDAR_DATE ( 2021, 26, 11 ) ;
#73 = PERSON_AND_ORGANIZATION ( #243, #240 ) ;
#74 = CIRCLE ( 'NONE', #207, 2.443059892324148663 ) ;
#75 = EDGE_CURVE ( 'NONE', #9, #9, #180, .T. ) ;
#76 = AXIS2_PLACEMENT_3D ( 'NONE', #67, #193, #147 ) ;
#77 = EDGE_LOOP ( 'NONE', ( #93 ) ) ;
#78 = ORIENTED_EDGE ( 'NONE', *, *, #75, .T. ) ;
#79 = CC_DESIGN_PERSON_AND_ORGANIZATION_ASSIGNMENT ( #149, #98, ( #127 ) ) ;
#80 = CARTESIAN_POINT ( 'NONE',  ( 4.427147299664476612E-30, 6.581037715734661456E-31, 1.267985382139079732E-15 ) ) ;
#81 = EDGE_LOOP ( 'NONE', ( #26 ) ) ;
#82 = DIRECTION ( 'NONE',  ( -3.491481338843133355E-15, 9.031770143711729009E-17, -1.000000000000000000 ) ) ;
#83 = CARTESIAN_POINT ( 'NONE',  ( 2.793185071074506684E-13, -7.225416114969383207E-15, 80.00000000000000000 ) ) ;
#84 = CARTESIAN_POINT ( 'NONE',  ( 0.0000000000000000000, 2.443059892324148663, 0.0000000000000000000 ) ) ;
#85 = CARTESIAN_POINT ( 'NONE',  ( 2.793185071074506684E-13, 1.599999999999987876, 80.00000000000000000 ) ) ;
#86 = APPROVAL ( #151, 'UNSPECIFIED' ) ;
#87 = DIRECTION ( 'NONE',  ( -1.800607651820528035E-30, 1.000000000000000000, -5.270990367356606405E-16 ) ) ;
#88 = UNCERTAINTY_MEASURE_WITH_UNIT (LENGTH_MEASURE( 1.000000000000000082E-05 ), #242, 'distance_accuracy_value', 'NONE');
#89 = AXIS2_PLACEMENT_3D ( 'NONE', #56, #137, #24 ) ;
#90 = AXIS2_PLACEMENT_3D ( 'NONE', #109, #27, #163 ) ;
#91 = VERTEX_POINT ( 'NONE', #182 ) ;
#92 = CC_DESIGN_PERSON_AND_ORGANIZATION_ASSIGNMENT ( #99, #35, ( #94 ) ) ;
#93 = ORIENTED_EDGE ( 'NONE', *, *, #14, .F. ) ;
#94 = PRODUCT ( '321438', '321438', '', ( #34 ) ) ;
#95 = CC_DESIGN_APPROVAL ( #175, ( #5 ) ) ;
#96 =( GEOMETRIC_REPRESENTATION_CONTEXT ( 3 ) GLOBAL_UNCERTAINTY_ASSIGNED_CONTEXT ( ( #88 ) ) GLOBAL_UNIT_ASSIGNED_CONTEXT ( ( #242, #51, #108 ) ) REPRESENTATION_CONTEXT ( 'NONE', 'WORKASPACE' ) );
#97 = EDGE_CURVE ( 'NONE', #195, #195, #150, .T. ) ;
#98 = PERSON_AND_ORGANIZATION_ROLE ( 'creator' ) ;
#99 = PERSON_AND_ORGANIZATION ( #243, #240 ) ;
#100 = ORIENTED_EDGE ( 'NONE', *, *, #68, .T. ) ;
#101 = APPROVAL_PERSON_ORGANIZATION ( #217, #62, #21 ) ;
#102 = ORIENTED_EDGE ( 'NONE', *, *, #4, .T. ) ;
#103 = DIRECTION ( 'NONE',  ( -3.491481338843133355E-15, 9.031770143711729009E-17, -1.000000000000000000 ) ) ;
#104 = EDGE_LOOP ( 'NONE', ( #148 ) ) ;
#105 = ADVANCED_BREP_SHAPE_REPRESENTATION ( '321438', ( #157, #232, #229 ), #96 ) ;
#106 = DIRECTION ( 'NONE',  ( -3.491481338843133355E-15, -5.190152669293797962E-16, -1.000000000000000000 ) ) ;
#107 = DIRECTION ( 'NONE',  ( 3.491481338843133355E-15, 5.190152669293797962E-16, 1.000000000000000000 ) ) ;
#108 =( NAMED_UNIT ( * ) SI_UNIT ( $, .STERADIAN. ) SOLID_ANGLE_UNIT ( ) );
#109 = CARTESIAN_POINT ( 'NONE',  ( 0.0000000000000000000, 0.0000000000000000000, 0.0000000000000000000 ) ) ;
#110 = FACE_BOUND ( 'NONE', #77, .T. ) ;
#111 = DIRECTION ( 'NONE',  ( 3.491481338843133355E-15, 5.190152669293797962E-16, 1.000000000000000000 ) ) ;
#112 = DIRECTION ( 'NONE',  ( -3.153425691349006731E-31, -1.000000000000000000, -9.031770143711729009E-17 ) ) ;
#113 = PERSON_AND_ORGANIZATION_ROLE ( 'classification_officer' ) ;
#114 = SHAPE_DEFINITION_REPRESENTATION ( #124, #105 ) ;
#115 = DIRECTION ( 'NONE',  ( 1.000000000000000000, 0.0000000000000000000, 0.0000000000000000000 ) ) ;
#116 = CC_DESIGN_DATE_AND_TIME_ASSIGNMENT ( #54, #136, ( #5 ) ) ;
#117 = CARTESIAN_POINT ( 'NONE',  ( 4.477634944865378564E-14, 2.673999999999998156, 12.82445618440280022 ) ) ;
#118 = COORDINATED_UNIVERSAL_TIME_OFFSET ( 1, 0, .AHEAD. ) ;
#119 = FACE_BOUND ( 'NONE', #134, .T. ) ;
#120 = EDGE_LOOP ( 'NONE', ( #205 ) ) ;
#121 = LOCAL_TIME ( 11, 3, 49.00000000000000000, #118 ) ;
#122 = DIRECTION ( 'NONE',  ( 3.153425691349006731E-31, 1.000000000000000000, 9.031770143711729009E-17 ) ) ;
#123 = ADVANCED_FACE ( 'NONE', ( #210 ), #234, .T. ) ;
#124 = PRODUCT_DEFINITION_SHAPE ( 'NONE', 'NONE',  #127 ) ;
#125 = FACE_OUTER_BOUND ( 'NONE', #152, .T. ) ;
#126 = CYLINDRICAL_SURFACE ( 'NONE', #90, 1.999999999999993561 ) ;
#127 = PRODUCT_DEFINITION ( 'UNKNOWN', '', #44, #223 ) ;
#128 = PLANE ( 'NONE',  #40 ) ;
#129 = AXIS2_PLACEMENT_3D ( 'NONE', #194, #107, #214 ) ;
#130 = CARTESIAN_POINT ( 'NONE',  ( 4.477634944865378564E-14, -1.158275404756284577E-15, 12.82445618440280022 ) ) ;
#131 = CARTESIAN_POINT ( 'NONE',  ( 1.396592535537258075E-15, 2.076061067717526482E-16, 0.4000000000000013545 ) ) ;
#132 = AXIS2_PLACEMENT_3D ( 'NONE', #141, #103, #176 ) ;
#133 = CC_DESIGN_APPROVAL ( #62, ( #127 ) ) ;
#134 = EDGE_LOOP ( 'NONE', ( #78 ) ) ;
#135 = COORDINATED_UNIVERSAL_TIME_OFFSET ( 1, 0, .AHEAD. ) ;
#136 = DATE_TIME_ROLE ( 'classification_date' ) ;
#137 = DIRECTION ( 'NONE',  ( -3.491481338843133355E-15, 9.031770143711729009E-17, -1.000000000000000000 ) ) ;
#138 = EDGE_LOOP ( 'NONE', ( #15 ) ) ;
#139 = CIRCLE ( 'NONE', #204, 2.673999999999998600 ) ;
#140 = ORIENTED_EDGE ( 'NONE', *, *, #68, .F. ) ;
#141 = CARTESIAN_POINT ( 'NONE',  ( 4.477634944865378564E-14, -1.158275404756284577E-15, 12.82445618440280022 ) ) ;
#142 = CONICAL_SURFACE ( 'NONE', #132, 2.673999999999999488, 0.5235987755982930425 ) ;
#143 = APPROVAL_PERSON_ORGANIZATION ( #200, #86, #30 ) ;
#144 = DIRECTION ( 'NONE',  ( -3.491481338843133355E-15, -5.190152669293797962E-16, -1.000000000000000000 ) ) ;
#145 = CARTESIAN_POINT ( 'NONE',  ( 4.885231259955590439E-14, 1.999999999999990452, 13.99185842870425134 ) ) ;
#146 = DIRECTION ( 'NONE',  ( -1.812132119058617069E-30, 1.000000000000000000, -5.190152669293797962E-16 ) ) ;
#147 = DIRECTION ( 'NONE',  ( 0.0000000000000000000, 1.000000000000000000, 0.0000000000000000000 ) ) ;
#148 = ORIENTED_EDGE ( 'NONE', *, *, #97, .T. ) ;
#149 = PERSON_AND_ORGANIZATION ( #243, #240 ) ;
#150 = CIRCLE ( 'NONE', #208, 1.599999999999994982 ) ;
#151 = APPROVAL_STATUS ( 'not_yet_approved' ) ;
#152 = EDGE_LOOP ( 'NONE', ( #102 ) ) ;
#153 = CALENDAR_DATE ( 2021, 26, 11 ) ;
#154 = CALENDAR_DATE ( 2021, 26, 11 ) ;
#155 = EDGE_LOOP ( 'NONE', ( #61 ) ) ;
#156 = FACE_OUTER_BOUND ( 'NONE', #227, .T. ) ;
#157 = MANIFOLD_SOLID_BREP ( 'Corps-Déplacer/Copier1[1]', #191 ) ;
#158 = LOCAL_TIME ( 11, 3, 49.00000000000000000, #20 ) ;
#159 = CARTESIAN_POINT ( 'NONE',  ( 4.477634944865377933E-14, 2.673999999999998156, 12.82445618440279844 ) ) ;
#160 = ADVANCED_FACE ( 'NONE', ( #125, #45 ), #126, .T. ) ;
#161 = LOCAL_TIME ( 11, 3, 49.00000000000000000, #173 ) ;
#162 = VERTEX_POINT ( 'NONE', #84 ) ;
#163 = DIRECTION ( 'NONE',  ( 3.153425691349006731E-31, 1.000000000000000000, 9.031770143711729009E-17 ) ) ;
#164 = FACE_BOUND ( 'NONE', #104, .T. ) ;
#165 = DIRECTION ( 'NONE',  ( -3.491481338843133355E-15, 9.031770143711729009E-17, -1.000000000000000000 ) ) ;
#166 = DIRECTION ( 'NONE',  ( -3.491481338843133355E-15, -5.190152669293797962E-16, -1.000000000000000000 ) ) ;
#167 = VERTEX_POINT ( 'NONE', #117 ) ;
#168 = ADVANCED_FACE ( 'NONE', ( #13 ), #6, .T. ) ;
#169 = LOCAL_TIME ( 11, 3, 49.00000000000000000, #1 ) ;
#170 = VERTEX_POINT ( 'NONE', #238 ) ;
#171 = APPROVAL_DATE_TIME ( #172, #86 ) ;
#172 = DATE_AND_TIME ( #72, #169 ) ;
#173 = COORDINATED_UNIVERSAL_TIME_OFFSET ( 1, 0, .AHEAD. ) ;
#174 = EDGE_LOOP ( 'NONE', ( #140 ) ) ;
#175 = APPROVAL ( #189, 'UNSPECIFIED' ) ;
#176 = DIRECTION ( 'NONE',  ( 0.0000000000000000000, 1.000000000000000000, 0.0000000000000000000 ) ) ;
#177 = FACE_OUTER_BOUND ( 'NONE', #174, .T. ) ;
#178 = EDGE_CURVE ( 'NONE', #170, #170, #185, .T. ) ;
#179 = DIRECTION ( 'NONE',  ( -2.304777794330282121E-30, 1.000000000000000000, -6.487372759823532642E-16 ) ) ;
#180 = CIRCLE ( 'NONE', #76, 1.999999999999991784 ) ;
#181 = FACE_OUTER_BOUND ( 'NONE', #81, .T. ) ;
#182 = CARTESIAN_POINT ( 'NONE',  ( 2.779219145719134403E-13, 1.999999999999988010, 79.60000000000000853 ) ) ;
#183 = DIRECTION ( 'NONE',  ( -3.491481338843133355E-15, 9.031770143711729009E-17, -1.000000000000000000 ) ) ;
#184 = DIRECTION ( 'NONE',  ( 3.491481338843133355E-15, -9.031770143711729009E-17, 1.000000000000000000 ) ) ;
#185 = CIRCLE ( 'NONE', #38, 2.673999999999991495 ) ;
#186 = CC_DESIGN_SECURITY_CLASSIFICATION ( #5, ( #44 ) ) ;
#187 = APPROVAL_ROLE ( '' ) ;
#188 = EDGE_CURVE ( 'NONE', #167, #167, #58, .T. ) ;
#189 = APPROVAL_STATUS ( 'not_yet_approved' ) ;
#190 = PLANE ( 'NONE',  #2 ) ;
#191 = CLOSED_SHELL ( 'NONE', ( #233, #55, #160, #32, #36 ) ) ;
#192 = EDGE_LOOP ( 'NONE', ( #66 ) ) ;
#193 = DIRECTION ( 'NONE',  ( -3.491481338843133355E-15, 9.031770143711729009E-17, -1.000000000000000000 ) ) ;
#194 = CARTESIAN_POINT ( 'NONE',  ( 4.477634944865377933E-14, 6.656088549771953639E-15, 12.82445618440279844 ) ) ;
#195 = VERTEX_POINT ( 'NONE', #85 ) ;
#196 = FACE_OUTER_BOUND ( 'NONE', #70, .T. ) ;
#197 = ADVANCED_FACE ( 'NONE', ( #196, #110 ), #225, .T. ) ;
#198 = DIRECTION ( 'NONE',  ( 1.812132119058617069E-30, -1.000000000000000000, 5.190152669293796976E-16 ) ) ;
#199 = AXIS2_PLACEMENT_3D ( 'NONE', #65, #166, #146 ) ;
#200 = PERSON_AND_ORGANIZATION ( #243, #240 ) ;
#201 = CALENDAR_DATE ( 2021, 26, 11 ) ;
#202 = APPROVAL_DATE_TIME ( #241, #62 ) ;
#203 = PERSON_AND_ORGANIZATION ( #243, #240 ) ;
#204 = AXIS2_PLACEMENT_3D ( 'NONE', #131, #28, #87 ) ;
#205 = ORIENTED_EDGE ( 'NONE', *, *, #75, .F. ) ;
#206 = CARTESIAN_POINT ( 'NONE',  ( 0.0000000000000000000, 0.0000000000000000000, 0.0000000000000000000 ) ) ;
#207 = AXIS2_PLACEMENT_3D ( 'NONE', #80, #106, #37 ) ;
#208 = AXIS2_PLACEMENT_3D ( 'NONE', #8, #165, #43 ) ;
#209 = CC_DESIGN_PERSON_AND_ORGANIZATION_ASSIGNMENT ( #222, #113, ( #5 ) ) ;
#210 = FACE_OUTER_BOUND ( 'NONE', #155, .T. ) ;
#211 = CARTESIAN_POINT ( 'NONE',  ( 1.396592535537253342E-15, 2.673999999999998600, 0.3999999999999999667 ) ) ;
#212 = PRODUCT_RELATED_PRODUCT_CATEGORY ( 'detail', '', ( #94 ) ) ;
#213 = CARTESIAN_POINT ( 'NONE',  ( 0.0000000000000000000, 0.0000000000000000000, 0.0000000000000000000 ) ) ;
#214 = DIRECTION ( 'NONE',  ( 1.812132119058617069E-30, -1.000000000000000000, 5.190152669293797962E-16 ) ) ;
#215 = CARTESIAN_POINT ( 'NONE',  ( 2.779219145719134403E-13, -7.189289034394536528E-15, 79.60000000000000853 ) ) ;
#216 = APPLICATION_PROTOCOL_DEFINITION ( 'international standard', 'config_control_design', 1994, #18 ) ;
#217 = PERSON_AND_ORGANIZATION ( #243, #240 ) ;
#218 = APPLICATION_CONTEXT ( 'configuration controlled 3d designs of mechanical parts and assemblies' ) ;
#219 = PERSON_AND_ORGANIZATION ( #243, #240 ) ;
#220 = CC_DESIGN_PERSON_AND_ORGANIZATION_ASSIGNMENT ( #73, #17, ( #44 ) ) ;
#221 = AXIS2_PLACEMENT_3D ( 'NONE', #130, #64, #10 ) ;
#222 = PERSON_AND_ORGANIZATION ( #243, #240 ) ;
#223 = DESIGN_CONTEXT ( 'detailed design', #18, 'design' ) ;
#224 = ORIENTED_EDGE ( 'NONE', *, *, #4, .F. ) ;
#225 = CONICAL_SURFACE ( 'NONE', #19, 2.443059892324148663, 0.5235987755982978165 ) ;
#226 = CC_DESIGN_APPROVAL ( #86, ( #44 ) ) ;
#227 = EDGE_LOOP ( 'NONE', ( #39 ) ) ;
#228 = CYLINDRICAL_SURFACE ( 'NONE', #63, 2.673999999999995048 ) ;
#229 = AXIS2_PLACEMENT_3D ( 'NONE', #213, #236, #115 ) ;
#230 = VERTEX_POINT ( 'NONE', #211 ) ;
#231 = CARTESIAN_POINT ( 'NONE',  ( 4.427147299664476612E-30, 6.581037715734661456E-31, 1.267985382139079732E-15 ) ) ;
#232 = MANIFOLD_SOLID_BREP ( 'Corps-Déplacer/Copier1[2]', #239 ) ;
#233 = ADVANCED_FACE ( 'NONE', ( #181 ), #128, .T. ) ;
#234 = PLANE ( 'NONE',  #199 ) ;
#235 = DIRECTION ( 'NONE',  ( -1.812132119058617069E-30, 1.000000000000000000, -5.190152669293797962E-16 ) ) ;
#236 = DIRECTION ( 'NONE',  ( 0.0000000000000000000, 0.0000000000000000000, 1.000000000000000000 ) ) ;
#237 = DIRECTION ( 'NONE',  ( 0.0000000000000000000, 1.000000000000000000, 0.0000000000000000000 ) ) ;
#238 = CARTESIAN_POINT ( 'NONE',  ( 4.477634944865378564E-14, 2.673999999999998156, 12.82445618440280022 ) ) ;
#239 = CLOSED_SHELL ( 'NONE', ( #168, #48, #197, #123 ) ) ;
#240 = ORGANIZATION ( 'UNSPECIFIED', 'UNSPECIFIED', '' ) ;
#241 = DATE_AND_TIME ( #154, #121 ) ;
#242 =( LENGTH_UNIT ( ) NAMED_UNIT ( * ) SI_UNIT ( .MILLI., .METRE. ) );
#243 = PERSON ( 'UNSPECIFIED', 'UNSPECIFIED', 'UNSPECIFIED', ('UNSPECIFIED'), ('UNSPECIFIED'), ('UNSPECIFIED') ) ;
ENDSEC;
END-ISO-10303-21;
