ISO-10303-21;
HEADER;
FILE_DESCRIPTION (( 'STEP AP203' ),
    '1' );
FILE_NAME ('321437.step',
    '2021-11-26T10:03:49',
    ( '' ),
    ( '' ),
    'SwSTEP 2.0',
    'SolidWorks 2019',
    '' );
FILE_SCHEMA (( 'CONFIG_CONTROL_DESIGN' ));
ENDSEC;

DATA;
#1 = CALENDAR_DATE ( 2021, 26, 11 ) ;
#2 = CIRCLE ( 'NONE', #25, 1.999999999999995337 ) ;
#3 = CARTESIAN_POINT ( 'NONE',  ( 0.0000000000000000000, 0.0000000000000000000, 0.0000000000000000000 ) ) ;
#4 = ADVANCED_FACE ( 'NONE', ( #137 ), #18, .T. ) ;
#5 = DATE_AND_TIME ( #112, #106 ) ;
#6 = APPROVAL_DATE_TIME ( #5, #197 ) ;
#7 = ORIENTED_EDGE ( 'NONE', *, *, #174, .F. ) ;
#8 = AXIS2_PLACEMENT_3D ( 'NONE', #52, #155, #105 ) ;
#9 = CARTESIAN_POINT ( 'NONE',  ( 2.793185071074506684E-13, -7.225416114969383207E-15, 80.00000000000000000 ) ) ;
#10 = DIRECTION ( 'NONE',  ( -3.491481338843133355E-15, 9.031770143711729009E-17, -1.000000000000000000 ) ) ;
#11 = DIRECTION ( 'NONE',  ( -3.491481338843133355E-15, 9.031770143711729009E-17, -1.000000000000000000 ) ) ;
#12 = AXIS2_PLACEMENT_3D ( 'NONE', #202, #240, #201 ) ;
#13 = DIRECTION ( 'NONE',  ( 0.0000000000000000000, 1.000000000000000000, 0.0000000000000000000 ) ) ;
#14 = FACE_OUTER_BOUND ( 'NONE', #80, .T. ) ;
#15 = FACE_OUTER_BOUND ( 'NONE', #64, .T. ) ;
#16 = CC_DESIGN_APPROVAL ( #163, ( #100 ) ) ;
#17 = APPROVAL_DATE_TIME ( #36, #29 ) ;
#18 = PLANE ( 'NONE',  #84 ) ;
#19 = PERSON_AND_ORGANIZATION_ROLE ( 'creator' ) ;
#20 = CARTESIAN_POINT ( 'NONE',  ( 4.480658656401656700E-14, 2.668999999999998263, 12.83311643844064598 ) ) ;
#21 = ORIENTED_EDGE ( 'NONE', *, *, #196, .T. ) ;
#22 = DATE_AND_TIME ( #113, #127 ) ;
#23 = ORIENTED_EDGE ( 'NONE', *, *, #87, .T. ) ;
#24 = CARTESIAN_POINT ( 'NONE',  ( 4.480658656401656700E-14, -1.159057578994844070E-15, 12.83311643844064598 ) ) ;
#25 = AXIS2_PLACEMENT_3D ( 'NONE', #86, #10, #13 ) ;
#26 = DIRECTION ( 'NONE',  ( -1.803980839628359617E-30, 1.000000000000000000, -5.280864834136966747E-16 ) ) ;
#27 = PRODUCT ( '321437', '321437', '', ( #146 ) ) ;
#28 = PERSON_AND_ORGANIZATION ( #162, #74 ) ;
#29 = APPROVAL ( #226, 'UNSPECIFIED' ) ;
#30 = CLOSED_SHELL ( 'NONE', ( #209, #170, #158, #133, #4 ) ) ;
#31 = PLANE ( 'NONE',  #229 ) ;
#32 = DIRECTION ( 'NONE',  ( -1.810332129015598118E-30, 1.000000000000000000, -5.184997292912448565E-16 ) ) ;
#33 = CARTESIAN_POINT ( 'NONE',  ( 4.480658656401657331E-14, 6.653967399294498818E-15, 12.83311643844064776 ) ) ;
#34 =( LENGTH_UNIT ( ) NAMED_UNIT ( * ) SI_UNIT ( .MILLI., .METRE. ) );
#35 =( NAMED_UNIT ( * ) PLANE_ANGLE_UNIT ( ) SI_UNIT ( $, .RADIAN. ) );
#36 = DATE_AND_TIME ( #206, #207 ) ;
#37 = LOCAL_TIME ( 11, 3, 49.00000000000000000, #164 ) ;
#38 = EDGE_LOOP ( 'NONE', ( #212 ) ) ;
#39 = PERSON_AND_ORGANIZATION ( #162, #74 ) ;
#40 = DATE_TIME_ROLE ( 'creation_date' ) ;
#41 = EDGE_CURVE ( 'NONE', #243, #243, #131, .T. ) ;
#42 = APPROVAL_ROLE ( '' ) ;
#43 = EDGE_LOOP ( 'NONE', ( #189 ) ) ;
#44 = PERSON_AND_ORGANIZATION ( #162, #74 ) ;
#45 = DIRECTION ( 'NONE',  ( -3.491481338843133355E-15, -5.184997292912448565E-16, -1.000000000000000000 ) ) ;
#46 = FACE_BOUND ( 'NONE', #192, .T. ) ;
#47 = CC_DESIGN_SECURITY_CLASSIFICATION ( #79, ( #100 ) ) ;
#48 = PRODUCT_DEFINITION_SHAPE ( 'NONE', 'NONE',  #205 ) ;
#49 = ADVANCED_FACE ( 'NONE', ( #200, #224 ), #198, .T. ) ;
#50 = AXIS2_PLACEMENT_3D ( 'NONE', #3, #54, #76 ) ;
#51 = PLANE ( 'NONE',  #12 ) ;
#52 = CARTESIAN_POINT ( 'NONE',  ( 4.413698155538715823E-30, 6.554528226630482989E-31, 1.264133394165912785E-15 ) ) ;
#53 = DIRECTION ( 'NONE',  ( 3.491481338843133355E-15, -9.031770143711729009E-17, 1.000000000000000000 ) ) ;
#54 = DIRECTION ( 'NONE',  ( 0.0000000000000000000, 0.0000000000000000000, 1.000000000000000000 ) ) ;
#55 = DIRECTION ( 'NONE',  ( -3.491481338843133355E-15, 9.031770143711729009E-17, -1.000000000000000000 ) ) ;
#56 = CC_DESIGN_PERSON_AND_ORGANIZATION_ASSIGNMENT ( #57, #208, ( #27 ) ) ;
#57 = PERSON_AND_ORGANIZATION ( #162, #74 ) ;
#58 = CLOSED_SHELL ( 'NONE', ( #217, #235, #49, #186 ) ) ;
#59 = PERSON_AND_ORGANIZATION ( #162, #74 ) ;
#60 = APPROVAL_ROLE ( '' ) ;
#61 = EDGE_LOOP ( 'NONE', ( #233 ) ) ;
#62 = PERSON_AND_ORGANIZATION ( #162, #74 ) ;
#63 = CIRCLE ( 'NONE', #165, 1.999999999999991784 ) ;
#64 = EDGE_LOOP ( 'NONE', ( #166 ) ) ;
#65 = AXIS2_PLACEMENT_3D ( 'NONE', #118, #103, #144 ) ;
#66 = ORIENTED_EDGE ( 'NONE', *, *, #225, .F. ) ;
#67 = APPROVAL_STATUS ( 'not_yet_approved' ) ;
#68 = UNCERTAINTY_MEASURE_WITH_UNIT (LENGTH_MEASURE( 1.000000000000000082E-05 ), #34, 'distance_accuracy_value', 'NONE');
#69 = FACE_BOUND ( 'NONE', #150, .T. ) ;
#70 = CIRCLE ( 'NONE', #175, 2.438059892324148770 ) ;
#71 = CARTESIAN_POINT ( 'NONE',  ( 2.779219145719134403E-13, -7.189289034394536528E-15, 79.60000000000000853 ) ) ;
#72 = FACE_OUTER_BOUND ( 'NONE', #153, .T. ) ;
#73 = DIRECTION ( 'NONE',  ( -3.153425691349006731E-31, -1.000000000000000000, -9.031770143711729009E-17 ) ) ;
#74 = ORGANIZATION ( 'UNSPECIFIED', 'UNSPECIFIED', '' ) ;
#75 = CARTESIAN_POINT ( 'NONE',  ( 1.396592535537253342E-15, 2.668999999999998707, 0.3999999999999999667 ) ) ;
#76 = DIRECTION ( 'NONE',  ( 1.000000000000000000, 0.0000000000000000000, 0.0000000000000000000 ) ) ;
#77 = VERTEX_POINT ( 'NONE', #92 ) ;
#78 = CYLINDRICAL_SURFACE ( 'NONE', #181, 2.668999999999995154 ) ;
#79 = SECURITY_CLASSIFICATION ( '', '', #138 ) ;
#80 = EDGE_LOOP ( 'NONE', ( #23 ) ) ;
#81 = PERSON_AND_ORGANIZATION_ROLE ( 'creator' ) ;
#82 = ORIENTED_EDGE ( 'NONE', *, *, #196, .F. ) ;
#83 = SHAPE_DEFINITION_REPRESENTATION ( #48, #122 ) ;
#84 = AXIS2_PLACEMENT_3D ( 'NONE', #93, #238, #141 ) ;
#85 = PLANE ( 'NONE',  #135 ) ;
#86 = CARTESIAN_POINT ( 'NONE',  ( 2.779219145719134403E-13, -7.189289034394536528E-15, 79.60000000000000853 ) ) ;
#87 = EDGE_CURVE ( 'NONE', #147, #147, #2, .T. ) ;
#88 = DIRECTION ( 'NONE',  ( 0.0000000000000000000, 1.000000000000000000, 0.0000000000000000000 ) ) ;
#89 = CC_DESIGN_APPROVAL ( #197, ( #79 ) ) ;
#90 = FACE_OUTER_BOUND ( 'NONE', #99, .T. ) ;
#91 = DIRECTION ( 'NONE',  ( 0.0000000000000000000, 1.000000000000000000, 0.0000000000000000000 ) ) ;
#92 = CARTESIAN_POINT ( 'NONE',  ( 4.885231259955590439E-14, 1.999999999999990452, 13.99185842870425134 ) ) ;
#93 = CARTESIAN_POINT ( 'NONE',  ( 4.480658656401657331E-14, 2.668999999999998263, 12.83311643844064776 ) ) ;
#94 = CARTESIAN_POINT ( 'NONE',  ( 0.0000000000000000000, 0.0000000000000000000, 0.0000000000000000000 ) ) ;
#95 = VERTEX_POINT ( 'NONE', #204 ) ;
#96 = CC_DESIGN_APPROVAL ( #29, ( #205 ) ) ;
#97 = ORIENTED_EDGE ( 'NONE', *, *, #225, .T. ) ;
#98 = APPROVAL_DATE_TIME ( #132, #163 ) ;
#99 = EDGE_LOOP ( 'NONE', ( #187 ) ) ;
#100 = PRODUCT_DEFINITION_FORMATION_WITH_SPECIFIED_SOURCE ( 'ANY', '', #27, .NOT_KNOWN. ) ;
#101 = DIRECTION ( 'NONE',  ( -3.491481338843133355E-15, 9.031770143711729009E-17, -1.000000000000000000 ) ) ;
#102 = CARTESIAN_POINT ( 'NONE',  ( 0.0000000000000000000, 0.0000000000000000000, 0.0000000000000000000 ) ) ;
#103 = DIRECTION ( 'NONE',  ( -3.491481338843133355E-15, 9.031770143711729009E-17, -1.000000000000000000 ) ) ;
#104 = FACE_OUTER_BOUND ( 'NONE', #136, .T. ) ;
#105 = DIRECTION ( 'NONE',  ( 1.810332129015598118E-30, -1.000000000000000000, 5.184997292912448565E-16 ) ) ;
#106 = LOCAL_TIME ( 11, 3, 49.00000000000000000, #115 ) ;
#107 = CARTESIAN_POINT ( 'NONE',  ( 4.480658656401656700E-14, 2.668999999999998263, 12.83311643844064598 ) ) ;
#108 = EDGE_LOOP ( 'NONE', ( #7 ) ) ;
#109 = VERTEX_POINT ( 'NONE', #107 ) ;
#110 = CC_DESIGN_PERSON_AND_ORGANIZATION_ASSIGNMENT ( #62, #234, ( #100 ) ) ;
#111 = FACE_OUTER_BOUND ( 'NONE', #114, .T. ) ;
#112 = CALENDAR_DATE ( 2021, 26, 11 ) ;
#113 = CALENDAR_DATE ( 2021, 26, 11 ) ;
#114 = EDGE_LOOP ( 'NONE', ( #167 ) ) ;
#115 = COORDINATED_UNIVERSAL_TIME_OFFSET ( 1, 0, .AHEAD. ) ;
#116 = DIRECTION ( 'NONE',  ( -2.309095474724306461E-30, 1.000000000000000000, -6.499525949707053215E-16 ) ) ;
#117 = AXIS2_PLACEMENT_3D ( 'NONE', #239, #236, #26 ) ;
#118 = CARTESIAN_POINT ( 'NONE',  ( 4.480658656401656700E-14, -1.159057578994844070E-15, 12.83311643844064598 ) ) ;
#119 = CALENDAR_DATE ( 2021, 26, 11 ) ;
#120 = LOCAL_TIME ( 11, 3, 49.00000000000000000, #188 ) ;
#121 = CARTESIAN_POINT ( 'NONE',  ( 2.793185071074506684E-13, -7.225416114969383207E-15, 80.00000000000000000 ) ) ;
#122 = ADVANCED_BREP_SHAPE_REPRESENTATION ( '321437', ( #182, #190, #50 ), #152 ) ;
#123 = PRODUCT_RELATED_PRODUCT_CATEGORY ( 'detail', '', ( #27 ) ) ;
#124 = CARTESIAN_POINT ( 'NONE',  ( 4.885231259955590439E-14, -1.263712492114123682E-15, 13.99185842870425134 ) ) ;
#125 = EDGE_CURVE ( 'NONE', #185, #185, #237, .T. ) ;
#126 = FACE_OUTER_BOUND ( 'NONE', #134, .T. ) ;
#127 = LOCAL_TIME ( 11, 3, 49.00000000000000000, #216 ) ;
#128 = APPLICATION_PROTOCOL_DEFINITION ( 'international standard', 'config_control_design', 1994, #219 ) ;
#129 = DIRECTION ( 'NONE',  ( 0.0000000000000000000, 1.000000000000000000, 0.0000000000000000000 ) ) ;
#130 = COORDINATED_UNIVERSAL_TIME_OFFSET ( 1, 0, .AHEAD. ) ;
#131 = CIRCLE ( 'NONE', #161, 2.668999999999991601 ) ;
#132 = DATE_AND_TIME ( #119, #120 ) ;
#133 = ADVANCED_FACE ( 'NONE', ( #46, #90 ), #143, .T. ) ;
#134 = EDGE_LOOP ( 'NONE', ( #21 ) ) ;
#135 = AXIS2_PLACEMENT_3D ( 'NONE', #121, #53, #73 ) ;
#136 = EDGE_LOOP ( 'NONE', ( #66 ) ) ;
#137 = FACE_OUTER_BOUND ( 'NONE', #38, .T. ) ;
#138 = SECURITY_CLASSIFICATION_LEVEL ( 'unclassified' ) ;
#139 = APPROVAL_STATUS ( 'not_yet_approved' ) ;
#140 = CONICAL_SURFACE ( 'NONE', #199, 1.999999999999995337, 0.7853981633974516097 ) ;
#141 = DIRECTION ( 'NONE',  ( 3.153425691349006731E-31, 1.000000000000000000, 9.031770143711729009E-17 ) ) ;
#142 = CC_DESIGN_DATE_AND_TIME_ASSIGNMENT ( #22, #168, ( #79 ) ) ;
#143 = CONICAL_SURFACE ( 'NONE', #65, 2.668999999999999595, 0.5235987755982933756 ) ;
#144 = DIRECTION ( 'NONE',  ( 0.0000000000000000000, 1.000000000000000000, 0.0000000000000000000 ) ) ;
#145 = DIRECTION ( 'NONE',  ( 3.153425691349006731E-31, 1.000000000000000000, 9.031770143711729009E-17 ) ) ;
#146 = MECHANICAL_CONTEXT ( 'NONE', #219, 'mechanical' ) ;
#147 = VERTEX_POINT ( 'NONE', #180 ) ;
#148 = CC_DESIGN_DATE_AND_TIME_ASSIGNMENT ( #149, #40, ( #205 ) ) ;
#149 = DATE_AND_TIME ( #1, #37 ) ;
#150 = EDGE_LOOP ( 'NONE', ( #97 ) ) ;
#151 = ORIENTED_EDGE ( 'NONE', *, *, #174, .T. ) ;
#152 =( GEOMETRIC_REPRESENTATION_CONTEXT ( 3 ) GLOBAL_UNCERTAINTY_ASSIGNED_CONTEXT ( ( #68 ) ) GLOBAL_UNIT_ASSIGNED_CONTEXT ( ( #34, #35, #228 ) ) REPRESENTATION_CONTEXT ( 'NONE', 'WORKASPACE' ) );
#153 = EDGE_LOOP ( 'NONE', ( #214 ) ) ;
#154 = AXIS2_PLACEMENT_3D ( 'NONE', #9, #55, #129 ) ;
#155 = DIRECTION ( 'NONE',  ( 3.491481338843133355E-15, 5.184997292912448565E-16, 1.000000000000000000 ) ) ;
#156 = APPROVAL_PERSON_ORGANIZATION ( #44, #163, #60 ) ;
#157 = CARTESIAN_POINT ( 'NONE',  ( 4.413698155538715823E-30, 6.554528226630482989E-31, 1.264133394165912785E-15 ) ) ;
#158 = ADVANCED_FACE ( 'NONE', ( #14, #195 ), #178, .T. ) ;
#159 = DIRECTION ( 'NONE',  ( -3.491481338843133355E-15, -5.184997292912448565E-16, -1.000000000000000000 ) ) ;
#160 = DIRECTION ( 'NONE',  ( -1.810332129015597767E-30, 1.000000000000000000, -5.184997292912448565E-16 ) ) ;
#161 = AXIS2_PLACEMENT_3D ( 'NONE', #176, #159, #116 ) ;
#162 = PERSON ( 'UNSPECIFIED', 'UNSPECIFIED', 'UNSPECIFIED', ('UNSPECIFIED'), ('UNSPECIFIED'), ('UNSPECIFIED') ) ;
#163 = APPROVAL ( #67, 'UNSPECIFIED' ) ;
#164 = COORDINATED_UNIVERSAL_TIME_OFFSET ( 1, 0, .AHEAD. ) ;
#165 = AXIS2_PLACEMENT_3D ( 'NONE', #124, #11, #88 ) ;
#166 = ORIENTED_EDGE ( 'NONE', *, *, #125, .F. ) ;
#167 = ORIENTED_EDGE ( 'NONE', *, *, #41, .T. ) ;
#168 = DATE_TIME_ROLE ( 'classification_date' ) ;
#169 = EDGE_LOOP ( 'NONE', ( #82 ) ) ;
#170 = ADVANCED_FACE ( 'NONE', ( #69, #221 ), #140, .T. ) ;
#171 = AXIS2_PLACEMENT_3D ( 'NONE', #102, #173, #145 ) ;
#172 = DIRECTION ( 'NONE',  ( 0.0000000000000000000, 1.000000000000000000, 0.0000000000000000000 ) ) ;
#173 = DIRECTION ( 'NONE',  ( -3.491481338843133355E-15, 9.031770143711729009E-17, -1.000000000000000000 ) ) ;
#174 = EDGE_CURVE ( 'NONE', #77, #77, #63, .T. ) ;
#175 = AXIS2_PLACEMENT_3D ( 'NONE', #157, #45, #32 ) ;
#176 = CARTESIAN_POINT ( 'NONE',  ( 4.480658656401657331E-14, 6.653967399294499607E-15, 12.83311643844064776 ) ) ;
#177 = CIRCLE ( 'NONE', #218, 2.668999999999999595 ) ;
#178 = CYLINDRICAL_SURFACE ( 'NONE', #171, 1.999999999999993561 ) ;
#179 = DIRECTION ( 'NONE',  ( -3.491481338843133355E-15, -5.184997292912448565E-16, -1.000000000000000000 ) ) ;
#180 = CARTESIAN_POINT ( 'NONE',  ( 2.779219145719134403E-13, 1.999999999999988010, 79.60000000000000853 ) ) ;
#181 = AXIS2_PLACEMENT_3D ( 'NONE', #94, #179, #160 ) ;
#182 = MANIFOLD_SOLID_BREP ( 'Corps-Déplacer/Copier1[1]', #30 ) ;
#183 = CC_DESIGN_PERSON_AND_ORGANIZATION_ASSIGNMENT ( #191, #211, ( #79 ) ) ;
#184 = APPROVAL_ROLE ( '' ) ;
#185 = VERTEX_POINT ( 'NONE', #75 ) ;
#186 = ADVANCED_FACE ( 'NONE', ( #126 ), #51, .T. ) ;
#187 = ORIENTED_EDGE ( 'NONE', *, *, #222, .F. ) ;
#188 = COORDINATED_UNIVERSAL_TIME_OFFSET ( 1, 0, .AHEAD. ) ;
#189 = ORIENTED_EDGE ( 'NONE', *, *, #125, .T. ) ;
#190 = MANIFOLD_SOLID_BREP ( 'Corps-Déplacer/Copier1[2]', #58 ) ;
#191 = PERSON_AND_ORGANIZATION ( #162, #74 ) ;
#192 = EDGE_LOOP ( 'NONE', ( #151 ) ) ;
#193 = DIRECTION ( 'NONE',  ( 1.810332129015597767E-30, -1.000000000000000000, 5.184997292912448565E-16 ) ) ;
#194 = APPLICATION_CONTEXT ( 'configuration controlled 3d designs of mechanical parts and assemblies' ) ;
#195 = FACE_OUTER_BOUND ( 'NONE', #108, .T. ) ;
#196 = EDGE_CURVE ( 'NONE', #95, #95, #70, .T. ) ;
#197 = APPROVAL ( #139, 'UNSPECIFIED' ) ;
#198 = CONICAL_SURFACE ( 'NONE', #8, 2.438059892324148770, 0.5235987755982978165 ) ;
#199 = AXIS2_PLACEMENT_3D ( 'NONE', #71, #223, #91 ) ;
#200 = FACE_OUTER_BOUND ( 'NONE', #43, .T. ) ;
#201 = DIRECTION ( 'NONE',  ( -1.810332129015597767E-30, 1.000000000000000000, -5.184997292912448565E-16 ) ) ;
#202 = CARTESIAN_POINT ( 'NONE',  ( -2.206849077769357912E-30, 2.438059892324148770, -6.320666970829563927E-16 ) ) ;
#203 = CIRCLE ( 'NONE', #154, 1.599999999999994982 ) ;
#204 = CARTESIAN_POINT ( 'NONE',  ( 0.0000000000000000000, 2.438059892324148770, 0.0000000000000000000 ) ) ;
#205 = PRODUCT_DEFINITION ( 'UNKNOWN', '', #100, #220 ) ;
#206 = CALENDAR_DATE ( 2021, 26, 11 ) ;
#207 = LOCAL_TIME ( 11, 3, 49.00000000000000000, #130 ) ;
#208 = PERSON_AND_ORGANIZATION_ROLE ( 'design_owner' ) ;
#209 = ADVANCED_FACE ( 'NONE', ( #104 ), #85, .T. ) ;
#210 = APPLICATION_PROTOCOL_DEFINITION ( 'international standard', 'config_control_design', 1994, #194 ) ;
#211 = PERSON_AND_ORGANIZATION_ROLE ( 'classification_officer' ) ;
#212 = ORIENTED_EDGE ( 'NONE', *, *, #222, .T. ) ;
#213 = APPROVAL_PERSON_ORGANIZATION ( #231, #197, #42 ) ;
#214 = ORIENTED_EDGE ( 'NONE', *, *, #41, .F. ) ;
#215 = DIRECTION ( 'NONE',  ( 3.491481338843133355E-15, 5.184997292912448565E-16, 1.000000000000000000 ) ) ;
#216 = COORDINATED_UNIVERSAL_TIME_OFFSET ( 1, 0, .AHEAD. ) ;
#217 = ADVANCED_FACE ( 'NONE', ( #72 ), #31, .T. ) ;
#218 = AXIS2_PLACEMENT_3D ( 'NONE', #24, #101, #172 ) ;
#219 = APPLICATION_CONTEXT ( 'configuration controlled 3d designs of mechanical parts and assemblies' ) ;
#220 = DESIGN_CONTEXT ( 'detailed design', #194, 'design' ) ;
#221 = FACE_OUTER_BOUND ( 'NONE', #61, .T. ) ;
#222 = EDGE_CURVE ( 'NONE', #109, #109, #177, .T. ) ;
#223 = DIRECTION ( 'NONE',  ( -3.491481338843133355E-15, 9.031770143711729009E-17, -1.000000000000000000 ) ) ;
#224 = FACE_BOUND ( 'NONE', #169, .T. ) ;
#225 = EDGE_CURVE ( 'NONE', #241, #241, #203, .T. ) ;
#226 = APPROVAL_STATUS ( 'not_yet_approved' ) ;
#227 = CARTESIAN_POINT ( 'NONE',  ( 2.793185071074506684E-13, 1.599999999999987876, 80.00000000000000000 ) ) ;
#228 =( NAMED_UNIT ( * ) SI_UNIT ( $, .STERADIAN. ) SOLID_ANGLE_UNIT ( ) );
#229 = AXIS2_PLACEMENT_3D ( 'NONE', #33, #215, #193 ) ;
#230 = CC_DESIGN_PERSON_AND_ORGANIZATION_ASSIGNMENT ( #59, #19, ( #205 ) ) ;
#231 = PERSON_AND_ORGANIZATION ( #162, #74 ) ;
#232 = CC_DESIGN_PERSON_AND_ORGANIZATION_ASSIGNMENT ( #28, #81, ( #100 ) ) ;
#233 = ORIENTED_EDGE ( 'NONE', *, *, #87, .F. ) ;
#234 = PERSON_AND_ORGANIZATION_ROLE ( 'design_supplier' ) ;
#235 = ADVANCED_FACE ( 'NONE', ( #111, #15 ), #78, .T. ) ;
#236 = DIRECTION ( 'NONE',  ( -3.491481338843133355E-15, -5.184997292912448565E-16, -1.000000000000000000 ) ) ;
#237 = CIRCLE ( 'NONE', #117, 2.668999999999998707 ) ;
#238 = DIRECTION ( 'NONE',  ( -3.491481338843133355E-15, 9.031770143711729009E-17, -1.000000000000000000 ) ) ;
#239 = CARTESIAN_POINT ( 'NONE',  ( 1.396592535537258075E-15, 2.073998917164986624E-16, 0.4000000000000013545 ) ) ;
#240 = DIRECTION ( 'NONE',  ( -3.491481338843133355E-15, -5.184997292912448565E-16, -1.000000000000000000 ) ) ;
#241 = VERTEX_POINT ( 'NONE', #227 ) ;
#242 = APPROVAL_PERSON_ORGANIZATION ( #39, #29, #184 ) ;
#243 = VERTEX_POINT ( 'NONE', #20 ) ;
ENDSEC;
END-ISO-10303-21;
