ISO-10303-21;
HEADER;
FILE_DESCRIPTION (( 'STEP AP203' ),
    '1' );
FILE_NAME ('321436.step',
    '2021-11-26T10:03:48',
    ( '' ),
    ( '' ),
    'SwSTEP 2.0',
    'SolidWorks 2019',
    '' );
FILE_SCHEMA (( 'CONFIG_CONTROL_DESIGN' ));
ENDSEC;

DATA;
#1 = FACE_OUTER_BOUND ( 'NONE', #87, .T. ) ;
#2 = SHAPE_DEFINITION_REPRESENTATION ( #77, #94 ) ;
#3 = PERSON_AND_ORGANIZATION_ROLE ( 'design_owner' ) ;
#4 = APPLICATION_CONTEXT ( 'configuration controlled 3d designs of mechanical parts and assemblies' ) ;
#5 = ORIENTED_EDGE ( 'NONE', *, *, #197, .T. ) ;
#6 = PERSON_AND_ORGANIZATION ( #224, #226 ) ;
#7 = EDGE_CURVE ( 'NONE', #153, #153, #209, .T. ) ;
#8 = LOCAL_TIME ( 11, 3, 48.00000000000000000, #45 ) ;
#9 = CC_DESIGN_DATE_AND_TIME_ASSIGNMENT ( #192, #53, ( #152 ) ) ;
#10 = EDGE_LOOP ( 'NONE', ( #214 ) ) ;
#11 = COORDINATED_UNIVERSAL_TIME_OFFSET ( 1, 0, .AHEAD. ) ;
#12 = CC_DESIGN_DATE_AND_TIME_ASSIGNMENT ( #51, #175, ( #47 ) ) ;
#13 = DIRECTION ( 'NONE',  ( 0.0000000000000000000, 1.000000000000000000, 0.0000000000000000000 ) ) ;
#14 = DIRECTION ( 'NONE',  ( -3.491481338843133355E-15, 9.031770143711729009E-17, -1.000000000000000000 ) ) ;
#15 = CIRCLE ( 'NONE', #202, 1.999999999999995337 ) ;
#16 = CARTESIAN_POINT ( 'NONE',  ( 1.396592535537257878E-15, 2.071939547963983512E-16, 0.4000000000000012990 ) ) ;
#17 = ORIENTED_EDGE ( 'NONE', *, *, #7, .F. ) ;
#18 = DIRECTION ( 'NONE',  ( 0.0000000000000000000, 1.000000000000000000, 0.0000000000000000000 ) ) ;
#19 =( NAMED_UNIT ( * ) SI_UNIT ( $, .STERADIAN. ) SOLID_ANGLE_UNIT ( ) );
#20 = VERTEX_POINT ( 'NONE', #135 ) ;
#21 = EDGE_LOOP ( 'NONE', ( #113 ) ) ;
#22 = PLANE ( 'NONE',  #198 ) ;
#23 = EDGE_CURVE ( 'NONE', #134, #134, #37, .T. ) ;
#24 = DIRECTION ( 'NONE',  ( 1.000000000000000000, 0.0000000000000000000, 0.0000000000000000000 ) ) ;
#25 = LOCAL_TIME ( 11, 3, 48.00000000000000000, #11 ) ;
#26 = DATE_AND_TIME ( #188, #89 ) ;
#27 = ADVANCED_FACE ( 'NONE', ( #235, #127 ), #109, .T. ) ;
#28 = EDGE_LOOP ( 'NONE', ( #102 ) ) ;
#29 = PERSON_AND_ORGANIZATION ( #224, #226 ) ;
#30 = FACE_BOUND ( 'NONE', #28, .T. ) ;
#31 = AXIS2_PLACEMENT_3D ( 'NONE', #218, #212, #132 ) ;
#32 = DIRECTION ( 'NONE',  ( -3.153425691349006731E-31, -1.000000000000000000, -9.031770143711729009E-17 ) ) ;
#33 = APPROVAL_STATUS ( 'not_yet_approved' ) ;
#34 = CIRCLE ( 'NONE', #136, 2.663999999999999702 ) ;
#35 = PLANE ( 'NONE',  #221 ) ;
#36 = FACE_OUTER_BOUND ( 'NONE', #104, .T. ) ;
#37 = CIRCLE ( 'NONE', #133, 1.999999999999991784 ) ;
#38 = FACE_OUTER_BOUND ( 'NONE', #10, .T. ) ;
#39 = PERSON_AND_ORGANIZATION ( #224, #226 ) ;
#40 = APPROVAL ( #62, 'UNSPECIFIED' ) ;
#41 = DIRECTION ( 'NONE',  ( -2.313429362627317657E-30, 1.000000000000000000, -6.511724759672719916E-16 ) ) ;
#42 = CARTESIAN_POINT ( 'NONE',  ( 4.885231259955590439E-14, 1.999999999999990452, 13.99185842870425134 ) ) ;
#43 = CC_DESIGN_APPROVAL ( #161, ( #152 ) ) ;
#44 = ORIENTED_EDGE ( 'NONE', *, *, #185, .T. ) ;
#45 = COORDINATED_UNIVERSAL_TIME_OFFSET ( 1, 0, .AHEAD. ) ;
#46 = AXIS2_PLACEMENT_3D ( 'NONE', #179, #112, #13 ) ;
#47 = PRODUCT_DEFINITION ( 'UNKNOWN', '', #105, #146 ) ;
#48 = PERSON_AND_ORGANIZATION_ROLE ( 'classification_officer' ) ;
#49 = DIRECTION ( 'NONE',  ( 0.0000000000000000000, 1.000000000000000000, 0.0000000000000000000 ) ) ;
#50 = EDGE_LOOP ( 'NONE', ( #85 ) ) ;
#51 = DATE_AND_TIME ( #101, #8 ) ;
#52 = PERSON_AND_ORGANIZATION ( #224, #226 ) ;
#53 = DATE_TIME_ROLE ( 'classification_date' ) ;
#54 = AXIS2_PLACEMENT_3D ( 'NONE', #120, #187, #24 ) ;
#55 = ORIENTED_EDGE ( 'NONE', *, *, #7, .T. ) ;
#56 = CC_DESIGN_PERSON_AND_ORGANIZATION_ASSIGNMENT ( #86, #48, ( #152 ) ) ;
#57 = FACE_OUTER_BOUND ( 'NONE', #210, .T. ) ;
#58 = FACE_OUTER_BOUND ( 'NONE', #174, .T. ) ;
#59 = ADVANCED_FACE ( 'NONE', ( #165, #196 ), #237, .T. ) ;
#60 = CARTESIAN_POINT ( 'NONE',  ( 1.396592535537253145E-15, 2.663999999999998813, 0.3999999999999999667 ) ) ;
#61 = AXIS2_PLACEMENT_3D ( 'NONE', #79, #154, #18 ) ;
#62 = APPROVAL_STATUS ( 'not_yet_approved' ) ;
#63 = COORDINATED_UNIVERSAL_TIME_OFFSET ( 1, 0, .AHEAD. ) ;
#64 = CALENDAR_DATE ( 2021, 26, 11 ) ;
#65 = AXIS2_PLACEMENT_3D ( 'NONE', #93, #97, #41 ) ;
#66 = PERSON_AND_ORGANIZATION ( #224, #226 ) ;
#67 = ADVANCED_FACE ( 'NONE', ( #131 ), #130, .T. ) ;
#68 = AXIS2_PLACEMENT_3D ( 'NONE', #177, #76, #32 ) ;
#69 = EDGE_CURVE ( 'NONE', #204, #204, #34, .T. ) ;
#70 = DIRECTION ( 'NONE',  ( -1.807366689552586873E-30, 1.000000000000000000, -5.087284968494298229E-16 ) ) ;
#71 = CIRCLE ( 'NONE', #61, 1.599999999999994982 ) ;
#72 = CARTESIAN_POINT ( 'NONE',  ( 4.885231259955590439E-14, -1.263712492114123682E-15, 13.99185842870425134 ) ) ;
#73 = ADVANCED_FACE ( 'NONE', ( #57, #58 ), #193, .T. ) ;
#74 = CARTESIAN_POINT ( 'NONE',  ( 4.483682367937933573E-14, -1.159839753233403761E-15, 12.84177669247848819 ) ) ;
#75 = ADVANCED_FACE ( 'NONE', ( #38 ), #35, .T. ) ;
#76 = DIRECTION ( 'NONE',  ( 3.491481338843133355E-15, -9.031770143711729009E-17, 1.000000000000000000 ) ) ;
#77 = PRODUCT_DEFINITION_SHAPE ( 'NONE', 'NONE',  #47 ) ;
#78 = DIRECTION ( 'NONE',  ( 1.808534566731825657E-30, -1.000000000000000000, 5.179848869909942016E-16 ) ) ;
#79 = CARTESIAN_POINT ( 'NONE',  ( 2.793185071074506684E-13, -7.225416114969383207E-15, 80.00000000000000000 ) ) ;
#80 = DIRECTION ( 'NONE',  ( 3.491481338843133355E-15, 5.179848869909942016E-16, 1.000000000000000000 ) ) ;
#81 = EDGE_LOOP ( 'NONE', ( #17 ) ) ;
#82 = VERTEX_POINT ( 'NONE', #137 ) ;
#83 = CC_DESIGN_APPROVAL ( #168, ( #105 ) ) ;
#84 = PERSON_AND_ORGANIZATION_ROLE ( 'design_supplier' ) ;
#85 = ORIENTED_EDGE ( 'NONE', *, *, #145, .T. ) ;
#86 = PERSON_AND_ORGANIZATION ( #224, #226 ) ;
#87 = EDGE_LOOP ( 'NONE', ( #55 ) ) ;
#88 = MANIFOLD_SOLID_BREP ( 'Corps-Déplacer/Copier1[2]', #234 ) ;
#89 = LOCAL_TIME ( 11, 3, 48.00000000000000000, #124 ) ;
#90 = DIRECTION ( 'NONE',  ( -3.491481338843133355E-15, -5.179848869909942016E-16, -1.000000000000000000 ) ) ;
#91 = CARTESIAN_POINT ( 'NONE',  ( 4.483682367937934204E-14, 2.663999999999998369, 12.84177669247848996 ) ) ;
#92 = AXIS2_PLACEMENT_3D ( 'NONE', #74, #164, #49 ) ;
#93 = CARTESIAN_POINT ( 'NONE',  ( 4.483682367937934204E-14, 6.651846248817054251E-15, 12.84177669247848996 ) ) ;
#94 = ADVANCED_BREP_SHAPE_REPRESENTATION ( '321436', ( #95, #88, #54 ), #156 ) ;
#95 = MANIFOLD_SOLID_BREP ( 'Corps-Déplacer/Copier1[1]', #163 ) ;
#96 = AXIS2_PLACEMENT_3D ( 'NONE', #16, #90, #70 ) ;
#97 = DIRECTION ( 'NONE',  ( -3.491481338843133355E-15, -5.179848869909942016E-16, -1.000000000000000000 ) ) ;
#98 = ORIENTED_EDGE ( 'NONE', *, *, #23, .T. ) ;
#99 = MECHANICAL_CONTEXT ( 'NONE', #4, 'mechanical' ) ;
#100 = APPROVAL_PERSON_ORGANIZATION ( #6, #168, #121 ) ;
#101 = CALENDAR_DATE ( 2021, 26, 11 ) ;
#102 = ORIENTED_EDGE ( 'NONE', *, *, #219, .T. ) ;
#103 = APPROVAL_ROLE ( '' ) ;
#104 = EDGE_LOOP ( 'NONE', ( #141 ) ) ;
#105 = PRODUCT_DEFINITION_FORMATION_WITH_SPECIFIED_SOURCE ( 'ANY', '', #184, .NOT_KNOWN. ) ;
#106 = DIRECTION ( 'NONE',  ( -1.808534566731825657E-30, 1.000000000000000000, -5.179848869909942016E-16 ) ) ;
#107 = PERSON_AND_ORGANIZATION ( #224, #226 ) ;
#108 = DIRECTION ( 'NONE',  ( -3.491481338843133355E-15, 9.031770143711729009E-17, -1.000000000000000000 ) ) ;
#109 = CONICAL_SURFACE ( 'NONE', #92, 2.663999999999999702, 0.5235987755982931535 ) ;
#110 = CC_DESIGN_PERSON_AND_ORGANIZATION_ASSIGNMENT ( #107, #190, ( #47 ) ) ;
#111 = EDGE_LOOP ( 'NONE', ( #143 ) ) ;
#112 = DIRECTION ( 'NONE',  ( -3.491481338843133355E-15, 9.031770143711729009E-17, -1.000000000000000000 ) ) ;
#113 = ORIENTED_EDGE ( 'NONE', *, *, #185, .F. ) ;
#114 = DIRECTION ( 'NONE',  ( 0.0000000000000000000, 1.000000000000000000, 0.0000000000000000000 ) ) ;
#115 = APPROVAL_STATUS ( 'not_yet_approved' ) ;
#116 = CARTESIAN_POINT ( 'NONE',  ( 4.483682367937934204E-14, 6.651846248817053462E-15, 12.84177669247848996 ) ) ;
#117 = AXIS2_PLACEMENT_3D ( 'NONE', #172, #80, #241 ) ;
#118 =( LENGTH_UNIT ( ) NAMED_UNIT ( * ) SI_UNIT ( .MILLI., .METRE. ) );
#119 = DIRECTION ( 'NONE',  ( -3.491481338843133355E-15, 9.031770143711729009E-17, -1.000000000000000000 ) ) ;
#120 = CARTESIAN_POINT ( 'NONE',  ( 0.0000000000000000000, 0.0000000000000000000, 0.0000000000000000000 ) ) ;
#121 = APPROVAL_ROLE ( '' ) ;
#122 = LOCAL_TIME ( 11, 3, 48.00000000000000000, #63 ) ;
#123 = EDGE_LOOP ( 'NONE', ( #201 ) ) ;
#124 = COORDINATED_UNIVERSAL_TIME_OFFSET ( 1, 0, .AHEAD. ) ;
#125 = DIRECTION ( 'NONE',  ( -1.808534566731825657E-30, 1.000000000000000000, -5.179848869909943002E-16 ) ) ;
#126 = APPROVAL_PERSON_ORGANIZATION ( #66, #40, #139 ) ;
#127 = FACE_OUTER_BOUND ( 'NONE', #123, .T. ) ;
#128 = APPLICATION_PROTOCOL_DEFINITION ( 'international standard', 'config_control_design', 1994, #140 ) ;
#129 = CC_DESIGN_PERSON_AND_ORGANIZATION_ASSIGNMENT ( #144, #230, ( #105 ) ) ;
#130 = PLANE ( 'NONE',  #68 ) ;
#131 = FACE_OUTER_BOUND ( 'NONE', #199, .T. ) ;
#132 = DIRECTION ( 'NONE',  ( 3.153425691349006731E-31, 1.000000000000000000, 9.031770143711729009E-17 ) ) ;
#133 = AXIS2_PLACEMENT_3D ( 'NONE', #72, #14, #162 ) ;
#134 = VERTEX_POINT ( 'NONE', #42 ) ;
#135 = CARTESIAN_POINT ( 'NONE',  ( 2.779219145719134403E-13, 1.999999999999988010, 79.60000000000000853 ) ) ;
#136 = AXIS2_PLACEMENT_3D ( 'NONE', #220, #150, #233 ) ;
#137 = CARTESIAN_POINT ( 'NONE',  ( 2.793185071074506684E-13, 1.599999999999987876, 80.00000000000000000 ) ) ;
#138 = ADVANCED_FACE ( 'NONE', ( #30, #36 ), #167, .T. ) ;
#139 = APPROVAL_ROLE ( '' ) ;
#140 = APPLICATION_CONTEXT ( 'configuration controlled 3d designs of mechanical parts and assemblies' ) ;
#141 = ORIENTED_EDGE ( 'NONE', *, *, #197, .F. ) ;
#142 = CALENDAR_DATE ( 2021, 26, 11 ) ;
#143 = ORIENTED_EDGE ( 'NONE', *, *, #145, .F. ) ;
#144 = PERSON_AND_ORGANIZATION ( #224, #226 ) ;
#145 = EDGE_CURVE ( 'NONE', #225, #225, #180, .T. ) ;
#146 = DESIGN_CONTEXT ( 'detailed design', #140, 'design' ) ;
#147 = ORIENTED_EDGE ( 'NONE', *, *, #219, .F. ) ;
#148 = APPROVAL_PERSON_ORGANIZATION ( #52, #161, #103 ) ;
#149 = DIRECTION ( 'NONE',  ( -3.491481338843133355E-15, -5.179848869909942016E-16, -1.000000000000000000 ) ) ;
#150 = DIRECTION ( 'NONE',  ( -3.491481338843133355E-15, 9.031770143711729009E-17, -1.000000000000000000 ) ) ;
#151 =( NAMED_UNIT ( * ) PLANE_ANGLE_UNIT ( ) SI_UNIT ( $, .RADIAN. ) );
#152 = SECURITY_CLASSIFICATION ( '', '', #178 ) ;
#153 = VERTEX_POINT ( 'NONE', #222 ) ;
#154 = DIRECTION ( 'NONE',  ( -3.491481338843133355E-15, 9.031770143711729009E-17, -1.000000000000000000 ) ) ;
#155 = CARTESIAN_POINT ( 'NONE',  ( 4.483682367937933573E-14, 2.663999999999998369, 12.84177669247848819 ) ) ;
#156 =( GEOMETRIC_REPRESENTATION_CONTEXT ( 3 ) GLOBAL_UNCERTAINTY_ASSIGNED_CONTEXT ( ( #232 ) ) GLOBAL_UNIT_ASSIGNED_CONTEXT ( ( #118, #151, #19 ) ) REPRESENTATION_CONTEXT ( 'NONE', 'WORKASPACE' ) );
#157 = CARTESIAN_POINT ( 'NONE',  ( 4.483682367937933573E-14, 2.663999999999998369, 12.84177669247848819 ) ) ;
#158 = CALENDAR_DATE ( 2021, 26, 11 ) ;
#159 = EDGE_LOOP ( 'NONE', ( #44 ) ) ;
#160 = CC_DESIGN_APPROVAL ( #40, ( #47 ) ) ;
#161 = APPROVAL ( #115, 'UNSPECIFIED' ) ;
#162 = DIRECTION ( 'NONE',  ( 0.0000000000000000000, 1.000000000000000000, 0.0000000000000000000 ) ) ;
#163 = CLOSED_SHELL ( 'NONE', ( #67, #138, #73, #27, #75 ) ) ;
#164 = DIRECTION ( 'NONE',  ( -3.491481338843133355E-15, 9.031770143711729009E-17, -1.000000000000000000 ) ) ;
#165 = FACE_OUTER_BOUND ( 'NONE', #159, .T. ) ;
#166 = FACE_OUTER_BOUND ( 'NONE', #50, .T. ) ;
#167 = CONICAL_SURFACE ( 'NONE', #46, 1.999999999999995337, 0.7853981633974516097 ) ;
#168 = APPROVAL ( #33, 'UNSPECIFIED' ) ;
#169 = FACE_BOUND ( 'NONE', #81, .T. ) ;
#170 = DIRECTION ( 'NONE',  ( -3.491481338843133355E-15, -5.179848869909942016E-16, -1.000000000000000000 ) ) ;
#171 = AXIS2_PLACEMENT_3D ( 'NONE', #181, #236, #125 ) ;
#172 = CARTESIAN_POINT ( 'NONE',  ( 4.400272918197036996E-30, 6.528102684968206034E-31, 1.260288253367844946E-15 ) ) ;
#173 = APPROVAL_DATE_TIME ( #211, #161 ) ;
#174 = EDGE_LOOP ( 'NONE', ( #182 ) ) ;
#175 = DATE_TIME_ROLE ( 'creation_date' ) ;
#176 = CC_DESIGN_SECURITY_CLASSIFICATION ( #152, ( #105 ) ) ;
#177 = CARTESIAN_POINT ( 'NONE',  ( 2.793185071074506684E-13, -7.225416114969383207E-15, 80.00000000000000000 ) ) ;
#178 = SECURITY_CLASSIFICATION_LEVEL ( 'unclassified' ) ;
#179 = CARTESIAN_POINT ( 'NONE',  ( 2.779219145719134403E-13, -7.189289034394536528E-15, 79.60000000000000853 ) ) ;
#180 = CIRCLE ( 'NONE', #96, 2.663999999999998813 ) ;
#181 = CARTESIAN_POINT ( 'NONE',  ( 4.400272918197036996E-30, 6.528102684968206034E-31, 1.260288253367844946E-15 ) ) ;
#182 = ORIENTED_EDGE ( 'NONE', *, *, #23, .F. ) ;
#183 = DIRECTION ( 'NONE',  ( -1.808534566731825657E-30, 1.000000000000000000, -5.179848869909942016E-16 ) ) ;
#184 = PRODUCT ( '321436', '321436', '', ( #99 ) ) ;
#185 = EDGE_CURVE ( 'NONE', #206, #206, #240, .T. ) ;
#186 = APPLICATION_PROTOCOL_DEFINITION ( 'international standard', 'config_control_design', 1994, #4 ) ;
#187 = DIRECTION ( 'NONE',  ( 0.0000000000000000000, 0.0000000000000000000, 1.000000000000000000 ) ) ;
#188 = CALENDAR_DATE ( 2021, 26, 11 ) ;
#189 = ADVANCED_FACE ( 'NONE', ( #166, #169 ), #216, .T. ) ;
#190 = PERSON_AND_ORGANIZATION_ROLE ( 'creator' ) ;
#191 = PRODUCT_RELATED_PRODUCT_CATEGORY ( 'detail', '', ( #184 ) ) ;
#192 = DATE_AND_TIME ( #64, #25 ) ;
#193 = CYLINDRICAL_SURFACE ( 'NONE', #31, 1.999999999999993561 ) ;
#194 = APPROVAL_DATE_TIME ( #213, #168 ) ;
#195 = AXIS2_PLACEMENT_3D ( 'NONE', #217, #149, #106 ) ;
#196 = FACE_OUTER_BOUND ( 'NONE', #111, .T. ) ;
#197 = EDGE_CURVE ( 'NONE', #20, #20, #15, .T. ) ;
#198 = AXIS2_PLACEMENT_3D ( 'NONE', #203, #170, #183 ) ;
#199 = EDGE_LOOP ( 'NONE', ( #147 ) ) ;
#200 = DIRECTION ( 'NONE',  ( 3.153425691349006731E-31, 1.000000000000000000, 9.031770143711729009E-17 ) ) ;
#201 = ORIENTED_EDGE ( 'NONE', *, *, #69, .F. ) ;
#202 = AXIS2_PLACEMENT_3D ( 'NONE', #205, #119, #114 ) ;
#203 = CARTESIAN_POINT ( 'NONE',  ( -2.200136459098518498E-30, 2.433059892324148876, -6.301441266839224729E-16 ) ) ;
#204 = VERTEX_POINT ( 'NONE', #155 ) ;
#205 = CARTESIAN_POINT ( 'NONE',  ( 2.779219145719134403E-13, -7.189289034394536528E-15, 79.60000000000000853 ) ) ;
#206 = VERTEX_POINT ( 'NONE', #157 ) ;
#207 = APPROVAL_DATE_TIME ( #26, #40 ) ;
#208 = ADVANCED_FACE ( 'NONE', ( #1 ), #22, .T. ) ;
#209 = CIRCLE ( 'NONE', #171, 2.433059892324148876 ) ;
#210 = EDGE_LOOP ( 'NONE', ( #5 ) ) ;
#211 = DATE_AND_TIME ( #158, #122 ) ;
#212 = DIRECTION ( 'NONE',  ( -3.491481338843133355E-15, 9.031770143711729009E-17, -1.000000000000000000 ) ) ;
#213 = DATE_AND_TIME ( #142, #231 ) ;
#214 = ORIENTED_EDGE ( 'NONE', *, *, #69, .T. ) ;
#215 = CC_DESIGN_PERSON_AND_ORGANIZATION_ASSIGNMENT ( #39, #3, ( #184 ) ) ;
#216 = CONICAL_SURFACE ( 'NONE', #117, 2.433059892324148876, 0.5235987755982978165 ) ;
#217 = CARTESIAN_POINT ( 'NONE',  ( 0.0000000000000000000, 0.0000000000000000000, 0.0000000000000000000 ) ) ;
#218 = CARTESIAN_POINT ( 'NONE',  ( 0.0000000000000000000, 0.0000000000000000000, 0.0000000000000000000 ) ) ;
#219 = EDGE_CURVE ( 'NONE', #82, #82, #71, .T. ) ;
#220 = CARTESIAN_POINT ( 'NONE',  ( 4.483682367937933573E-14, -1.159839753233403761E-15, 12.84177669247848819 ) ) ;
#221 = AXIS2_PLACEMENT_3D ( 'NONE', #91, #108, #200 ) ;
#222 = CARTESIAN_POINT ( 'NONE',  ( 0.0000000000000000000, 2.433059892324148876, 0.0000000000000000000 ) ) ;
#223 = FACE_OUTER_BOUND ( 'NONE', #21, .T. ) ;
#224 = PERSON ( 'UNSPECIFIED', 'UNSPECIFIED', 'UNSPECIFIED', ('UNSPECIFIED'), ('UNSPECIFIED'), ('UNSPECIFIED') ) ;
#225 = VERTEX_POINT ( 'NONE', #60 ) ;
#226 = ORGANIZATION ( 'UNSPECIFIED', 'UNSPECIFIED', '' ) ;
#227 = EDGE_LOOP ( 'NONE', ( #98 ) ) ;
#228 = AXIS2_PLACEMENT_3D ( 'NONE', #116, #238, #78 ) ;
#229 = COORDINATED_UNIVERSAL_TIME_OFFSET ( 1, 0, .AHEAD. ) ;
#230 = PERSON_AND_ORGANIZATION_ROLE ( 'creator' ) ;
#231 = LOCAL_TIME ( 11, 3, 48.00000000000000000, #229 ) ;
#232 = UNCERTAINTY_MEASURE_WITH_UNIT (LENGTH_MEASURE( 1.000000000000000082E-05 ), #118, 'distance_accuracy_value', 'NONE');
#233 = DIRECTION ( 'NONE',  ( 0.0000000000000000000, 1.000000000000000000, 0.0000000000000000000 ) ) ;
#234 = CLOSED_SHELL ( 'NONE', ( #239, #59, #189, #208 ) ) ;
#235 = FACE_BOUND ( 'NONE', #227, .T. ) ;
#236 = DIRECTION ( 'NONE',  ( -3.491481338843133355E-15, -5.179848869909942016E-16, -1.000000000000000000 ) ) ;
#237 = CYLINDRICAL_SURFACE ( 'NONE', #195, 2.663999999999995261 ) ;
#238 = DIRECTION ( 'NONE',  ( 3.491481338843133355E-15, 5.179848869909942016E-16, 1.000000000000000000 ) ) ;
#239 = ADVANCED_FACE ( 'NONE', ( #223 ), #243, .T. ) ;
#240 = CIRCLE ( 'NONE', #65, 2.663999999999991708 ) ;
#241 = DIRECTION ( 'NONE',  ( 1.808534566731825657E-30, -1.000000000000000000, 5.179848869909943002E-16 ) ) ;
#242 = CC_DESIGN_PERSON_AND_ORGANIZATION_ASSIGNMENT ( #29, #84, ( #105 ) ) ;
#243 = PLANE ( 'NONE',  #228 ) ;
ENDSEC;
END-ISO-10303-21;
