ISO-10303-21;
HEADER;
FILE_DESCRIPTION (( 'STEP AP203' ),
    '1' );
FILE_NAME ('321435.step',
    '2021-11-26T10:03:48',
    ( '' ),
    ( '' ),
    'SwSTEP 2.0',
    'SolidWorks 2019',
    '' );
FILE_SCHEMA (( 'CONFIG_CONTROL_DESIGN' ));
ENDSEC;

DATA;
#1 = LOCAL_TIME ( 11, 3, 48.00000000000000000, #58 ) ;
#2 = APPROVAL_ROLE ( '' ) ;
#3 = COORDINATED_UNIVERSAL_TIME_OFFSET ( 1, 0, .AHEAD. ) ;
#4 = APPLICATION_PROTOCOL_DEFINITION ( 'international standard', 'config_control_design', 1994, #233 ) ;
#5 = AXIS2_PLACEMENT_3D ( 'NONE', #162, #137, #205 ) ;
#6 = LOCAL_TIME ( 11, 3, 48.00000000000000000, #41 ) ;
#7 = DIRECTION ( 'NONE',  ( -3.491481338843133355E-15, -5.174707386228063064E-16, -1.000000000000000000 ) ) ;
#8 = EDGE_LOOP ( 'NONE', ( #235 ) ) ;
#9 = CARTESIAN_POINT ( 'NONE',  ( 0.0000000000000000000, 0.0000000000000000000, 0.0000000000000000000 ) ) ;
#10 = PRODUCT_DEFINITION_SHAPE ( 'NONE', 'NONE',  #217 ) ;
#11 = LOCAL_TIME ( 11, 3, 48.00000000000000000, #70 ) ;
#12 = FACE_OUTER_BOUND ( 'NONE', #33, .T. ) ;
#13 = EDGE_LOOP ( 'NONE', ( #122 ) ) ;
#14 = EDGE_LOOP ( 'NONE', ( #239 ) ) ;
#15 = CARTESIAN_POINT ( 'NONE',  ( 1.396592535537253145E-15, 2.658999999999998476, 0.3999999999999999667 ) ) ;
#16 = DIRECTION ( 'NONE',  ( 3.491481338843133355E-15, -9.031770143711729009E-17, 1.000000000000000000 ) ) ;
#17 = CIRCLE ( 'NONE', #73, 1.999999999999991784 ) ;
#18 = DESIGN_CONTEXT ( 'detailed design', #233, 'design' ) ;
#19 = EDGE_CURVE ( 'NONE', #51, #51, #40, .T. ) ;
#20 = AXIS2_PLACEMENT_3D ( 'NONE', #105, #178, #232 ) ;
#21 = PERSON_AND_ORGANIZATION_ROLE ( 'classification_officer' ) ;
#22 = DATE_TIME_ROLE ( 'classification_date' ) ;
#23 = SHAPE_DEFINITION_REPRESENTATION ( #10, #95 ) ;
#24 = SECURITY_CLASSIFICATION ( '', '', #202 ) ;
#25 = CARTESIAN_POINT ( 'NONE',  ( 4.486706079474211708E-14, -1.160621927471963451E-15, 12.85043694651633395 ) ) ;
#26 = DIRECTION ( 'NONE',  ( 3.153425691349006731E-31, 1.000000000000000000, 9.031770143711729009E-17 ) ) ;
#27 = PRODUCT_RELATED_PRODUCT_CATEGORY ( 'detail', '', ( #179 ) ) ;
#28 = FACE_BOUND ( 'NONE', #196, .T. ) ;
#29 = AXIS2_PLACEMENT_3D ( 'NONE', #76, #45, #143 ) ;
#30 = CARTESIAN_POINT ( 'NONE',  ( -2.193435769652581680E-30, 2.428059892324148983, -6.282249729506943518E-16 ) ) ;
#31 = DIRECTION ( 'NONE',  ( -3.491481338843133355E-15, 9.031770143711729009E-17, -1.000000000000000000 ) ) ;
#32 = CARTESIAN_POINT ( 'NONE',  ( 4.486706079474211708E-14, 2.658999999999998032, 12.85043694651633395 ) ) ;
#33 = EDGE_LOOP ( 'NONE', ( #149 ) ) ;
#34 = CC_DESIGN_SECURITY_CLASSIFICATION ( #24, ( #148 ) ) ;
#35 = VERTEX_POINT ( 'NONE', #15 ) ;
#36 = CLOSED_SHELL ( 'NONE', ( #224, #173, #82, #116 ) ) ;
#37 = PERSON_AND_ORGANIZATION ( #43, #134 ) ;
#38 = CC_DESIGN_DATE_AND_TIME_ASSIGNMENT ( #71, #22, ( #24 ) ) ;
#39 = CALENDAR_DATE ( 2021, 26, 11 ) ;
#40 = CIRCLE ( 'NONE', #138, 2.658999999999999364 ) ;
#41 = COORDINATED_UNIVERSAL_TIME_OFFSET ( 1, 0, .AHEAD. ) ;
#42 = ADVANCED_FACE ( 'NONE', ( #28, #193 ), #96, .T. ) ;
#43 = PERSON ( 'UNSPECIFIED', 'UNSPECIFIED', 'UNSPECIFIED', ('UNSPECIFIED'), ('UNSPECIFIED'), ('UNSPECIFIED') ) ;
#44 = CYLINDRICAL_SURFACE ( 'NONE', #203, 2.658999999999994923 ) ;
#45 = DIRECTION ( 'NONE',  ( -3.491481338843133355E-15, 9.031770143711729009E-17, -1.000000000000000000 ) ) ;
#46 = FACE_BOUND ( 'NONE', #164, .T. ) ;
#47 = CARTESIAN_POINT ( 'NONE',  ( 4.486706079474211077E-14, 2.658999999999998032, 12.85043694651633217 ) ) ;
#48 = AXIS2_PLACEMENT_3D ( 'NONE', #237, #93, #136 ) ;
#49 = CYLINDRICAL_SURFACE ( 'NONE', #5, 1.999999999999993561 ) ;
#50 = ADVANCED_FACE ( 'NONE', ( #119 ), #139, .T. ) ;
#51 = VERTEX_POINT ( 'NONE', #168 ) ;
#52 = ORIENTED_EDGE ( 'NONE', *, *, #185, .F. ) ;
#53 = CC_DESIGN_DATE_AND_TIME_ASSIGNMENT ( #153, #133, ( #217 ) ) ;
#54 = FACE_OUTER_BOUND ( 'NONE', #106, .T. ) ;
#55 = PLANE ( 'NONE',  #236 ) ;
#56 = ADVANCED_FACE ( 'NONE', ( #46, #118 ), #127, .T. ) ;
#57 = MANIFOLD_SOLID_BREP ( 'Corps-Déplacer/Copier1[1]', #183 ) ;
#58 = COORDINATED_UNIVERSAL_TIME_OFFSET ( 1, 0, .AHEAD. ) ;
#59 = AXIS2_PLACEMENT_3D ( 'NONE', #220, #109, #169 ) ;
#60 = APPROVAL_STATUS ( 'not_yet_approved' ) ;
#61 = PERSON_AND_ORGANIZATION ( #43, #134 ) ;
#62 = DIRECTION ( 'NONE',  ( -1.810765273022975653E-30, 1.000000000000000000, -5.096851130526067251E-16 ) ) ;
#63 = CARTESIAN_POINT ( 'NONE',  ( 4.486706079474212340E-14, 6.649725098339608107E-15, 12.85043694651633572 ) ) ;
#64 = DIRECTION ( 'NONE',  ( -3.491481338843133355E-15, 9.031770143711729009E-17, -1.000000000000000000 ) ) ;
#65 = CARTESIAN_POINT ( 'NONE',  ( 1.396592535537257878E-15, 2.069882954491231882E-16, 0.4000000000000012990 ) ) ;
#66 = CARTESIAN_POINT ( 'NONE',  ( 4.885231259955590439E-14, 1.999999999999990452, 13.99185842870425134 ) ) ;
#67 = ORIENTED_EDGE ( 'NONE', *, *, #123, .T. ) ;
#68 = DIRECTION ( 'NONE',  ( 1.806739427298900791E-30, -1.000000000000000000, 5.174707386228063064E-16 ) ) ;
#69 = CIRCLE ( 'NONE', #174, 2.428059892324148983 ) ;
#70 = COORDINATED_UNIVERSAL_TIME_OFFSET ( 1, 0, .AHEAD. ) ;
#71 = DATE_AND_TIME ( #114, #79 ) ;
#72 = PERSON_AND_ORGANIZATION_ROLE ( 'design_supplier' ) ;
#73 = AXIS2_PLACEMENT_3D ( 'NONE', #160, #141, #227 ) ;
#74 = PERSON_AND_ORGANIZATION_ROLE ( 'creator' ) ;
#75 = EDGE_CURVE ( 'NONE', #130, #130, #152, .T. ) ;
#76 = CARTESIAN_POINT ( 'NONE',  ( 2.779219145719134403E-13, -7.189289034394536528E-15, 79.60000000000000853 ) ) ;
#77 = CARTESIAN_POINT ( 'NONE',  ( 4.486706079474211708E-14, -1.160621927471963451E-15, 12.85043694651633395 ) ) ;
#78 = AXIS2_PLACEMENT_3D ( 'NONE', #65, #83, #62 ) ;
#79 = LOCAL_TIME ( 11, 3, 48.00000000000000000, #3 ) ;
#80 = FACE_OUTER_BOUND ( 'NONE', #180, .T. ) ;
#81 = ORIENTED_EDGE ( 'NONE', *, *, #129, .T. ) ;
#82 = ADVANCED_FACE ( 'NONE', ( #80, #175 ), #230, .T. ) ;
#83 = DIRECTION ( 'NONE',  ( -3.491481338843133355E-15, -5.174707386228063064E-16, -1.000000000000000000 ) ) ;
#84 = EDGE_LOOP ( 'NONE', ( #120 ) ) ;
#85 = CC_DESIGN_PERSON_AND_ORGANIZATION_ASSIGNMENT ( #187, #74, ( #148 ) ) ;
#86 = UNCERTAINTY_MEASURE_WITH_UNIT (LENGTH_MEASURE( 1.000000000000000082E-05 ), #90, 'distance_accuracy_value', 'NONE');
#87 = CIRCLE ( 'NONE', #78, 2.658999999999998476 ) ;
#88 = VERTEX_POINT ( 'NONE', #218 ) ;
#89 = EDGE_LOOP ( 'NONE', ( #146 ) ) ;
#90 =( LENGTH_UNIT ( ) NAMED_UNIT ( * ) SI_UNIT ( .MILLI., .METRE. ) );
#91 = EDGE_LOOP ( 'NONE', ( #144 ) ) ;
#92 = CARTESIAN_POINT ( 'NONE',  ( 2.793185071074506684E-13, -7.225416114969383207E-15, 80.00000000000000000 ) ) ;
#93 = DIRECTION ( 'NONE',  ( 0.0000000000000000000, 0.0000000000000000000, 1.000000000000000000 ) ) ;
#94 = APPROVAL_DATE_TIME ( #99, #228 ) ;
#95 = ADVANCED_BREP_SHAPE_REPRESENTATION ( '321435', ( #57, #132, #48 ), #211 ) ;
#96 = CONICAL_SURFACE ( 'NONE', #29, 1.999999999999995337, 0.7853981633974516097 ) ;
#97 = CC_DESIGN_APPROVAL ( #192, ( #24 ) ) ;
#98 = CALENDAR_DATE ( 2021, 26, 11 ) ;
#99 = DATE_AND_TIME ( #98, #1 ) ;
#100 = CALENDAR_DATE ( 2021, 26, 11 ) ;
#101 = DIRECTION ( 'NONE',  ( -1.806739427298900791E-30, 1.000000000000000000, -5.174707386228063064E-16 ) ) ;
#102 = DIRECTION ( 'NONE',  ( -2.317779549469414819E-30, 1.000000000000000000, -6.523969447073382924E-16 ) ) ;
#103 = CIRCLE ( 'NONE', #59, 1.999999999999995337 ) ;
#104 = LOCAL_TIME ( 11, 3, 48.00000000000000000, #111 ) ;
#105 = CARTESIAN_POINT ( 'NONE',  ( 4.386871539305163360E-30, 6.501760815481766397E-31, 1.256449945901388704E-15 ) ) ;
#106 = EDGE_LOOP ( 'NONE', ( #52 ) ) ;
#107 =( NAMED_UNIT ( * ) SI_UNIT ( $, .STERADIAN. ) SOLID_ANGLE_UNIT ( ) );
#108 = EDGE_LOOP ( 'NONE', ( #215 ) ) ;
#109 = DIRECTION ( 'NONE',  ( -3.491481338843133355E-15, 9.031770143711729009E-17, -1.000000000000000000 ) ) ;
#110 =( NAMED_UNIT ( * ) PLANE_ANGLE_UNIT ( ) SI_UNIT ( $, .RADIAN. ) );
#111 = COORDINATED_UNIVERSAL_TIME_OFFSET ( 1, 0, .AHEAD. ) ;
#112 = DATE_AND_TIME ( #39, #104 ) ;
#113 = AXIS2_PLACEMENT_3D ( 'NONE', #30, #214, #176 ) ;
#114 = CALENDAR_DATE ( 2021, 26, 11 ) ;
#115 = DATE_AND_TIME ( #100, #6 ) ;
#116 = ADVANCED_FACE ( 'NONE', ( #159 ), #121, .T. ) ;
#117 = AXIS2_PLACEMENT_3D ( 'NONE', #47, #195, #26 ) ;
#118 = FACE_OUTER_BOUND ( 'NONE', #108, .T. ) ;
#119 = FACE_OUTER_BOUND ( 'NONE', #128, .T. ) ;
#120 = ORIENTED_EDGE ( 'NONE', *, *, #75, .F. ) ;
#121 = PLANE ( 'NONE',  #113 ) ;
#122 = ORIENTED_EDGE ( 'NONE', *, *, #189, .T. ) ;
#123 = EDGE_CURVE ( 'NONE', #182, #182, #17, .T. ) ;
#124 = VERTEX_POINT ( 'NONE', #147 ) ;
#125 = CC_DESIGN_PERSON_AND_ORGANIZATION_ASSIGNMENT ( #204, #21, ( #24 ) ) ;
#126 = DIRECTION ( 'NONE',  ( -3.153425691349006731E-31, -1.000000000000000000, -9.031770143711729009E-17 ) ) ;
#127 = CONICAL_SURFACE ( 'NONE', #225, 2.658999999999999364, 0.5235987755982932645 ) ;
#128 = EDGE_LOOP ( 'NONE', ( #194 ) ) ;
#129 = EDGE_CURVE ( 'NONE', #35, #35, #87, .T. ) ;
#130 = VERTEX_POINT ( 'NONE', #32 ) ;
#131 = APPROVAL_PERSON_ORGANIZATION ( #188, #228, #2 ) ;
#132 = MANIFOLD_SOLID_BREP ( 'Corps-Déplacer/Copier1[2]', #36 ) ;
#133 = DATE_TIME_ROLE ( 'creation_date' ) ;
#134 = ORGANIZATION ( 'UNSPECIFIED', 'UNSPECIFIED', '' ) ;
#135 = APPROVAL_ROLE ( '' ) ;
#136 = DIRECTION ( 'NONE',  ( 1.000000000000000000, 0.0000000000000000000, 0.0000000000000000000 ) ) ;
#137 = DIRECTION ( 'NONE',  ( -3.491481338843133355E-15, 9.031770143711729009E-17, -1.000000000000000000 ) ) ;
#138 = AXIS2_PLACEMENT_3D ( 'NONE', #77, #157, #158 ) ;
#139 = PLANE ( 'NONE',  #117 ) ;
#140 = DIRECTION ( 'NONE',  ( 0.0000000000000000000, 1.000000000000000000, 0.0000000000000000000 ) ) ;
#141 = DIRECTION ( 'NONE',  ( -3.491481338843133355E-15, 9.031770143711729009E-17, -1.000000000000000000 ) ) ;
#142 = CIRCLE ( 'NONE', #207, 1.599999999999994982 ) ;
#143 = DIRECTION ( 'NONE',  ( 0.0000000000000000000, 1.000000000000000000, 0.0000000000000000000 ) ) ;
#144 = ORIENTED_EDGE ( 'NONE', *, *, #75, .T. ) ;
#145 = FACE_OUTER_BOUND ( 'NONE', #84, .T. ) ;
#146 = ORIENTED_EDGE ( 'NONE', *, *, #216, .T. ) ;
#147 = CARTESIAN_POINT ( 'NONE',  ( 2.779219145719134403E-13, 1.999999999999988010, 79.60000000000000853 ) ) ;
#148 = PRODUCT_DEFINITION_FORMATION_WITH_SPECIFIED_SOURCE ( 'ANY', '', #179, .NOT_KNOWN. ) ;
#149 = ORIENTED_EDGE ( 'NONE', *, *, #123, .F. ) ;
#150 = ADVANCED_FACE ( 'NONE', ( #210, #12 ), #49, .T. ) ;
#151 = DIRECTION ( 'NONE',  ( -3.491481338843133355E-15, -5.174707386228063064E-16, -1.000000000000000000 ) ) ;
#152 = CIRCLE ( 'NONE', #167, 2.658999999999991815 ) ;
#153 = DATE_AND_TIME ( #201, #11 ) ;
#154 = PERSON_AND_ORGANIZATION ( #43, #134 ) ;
#155 = MECHANICAL_CONTEXT ( 'NONE', #161, 'mechanical' ) ;
#156 = APPROVAL_STATUS ( 'not_yet_approved' ) ;
#157 = DIRECTION ( 'NONE',  ( -3.491481338843133355E-15, 9.031770143711729009E-17, -1.000000000000000000 ) ) ;
#158 = DIRECTION ( 'NONE',  ( 0.0000000000000000000, 1.000000000000000000, 0.0000000000000000000 ) ) ;
#159 = FACE_OUTER_BOUND ( 'NONE', #13, .T. ) ;
#160 = CARTESIAN_POINT ( 'NONE',  ( 4.885231259955590439E-14, -1.263712492114123682E-15, 13.99185842870425134 ) ) ;
#161 = APPLICATION_CONTEXT ( 'configuration controlled 3d designs of mechanical parts and assemblies' ) ;
#162 = CARTESIAN_POINT ( 'NONE',  ( 0.0000000000000000000, 0.0000000000000000000, 0.0000000000000000000 ) ) ;
#163 = CC_DESIGN_PERSON_AND_ORGANIZATION_ASSIGNMENT ( #223, #184, ( #179 ) ) ;
#164 = EDGE_LOOP ( 'NONE', ( #67 ) ) ;
#165 = PLANE ( 'NONE',  #240 ) ;
#166 = ORIENTED_EDGE ( 'NONE', *, *, #185, .T. ) ;
#167 = AXIS2_PLACEMENT_3D ( 'NONE', #63, #7, #102 ) ;
#168 = CARTESIAN_POINT ( 'NONE',  ( 4.486706079474211708E-14, 2.658999999999998032, 12.85043694651633395 ) ) ;
#169 = DIRECTION ( 'NONE',  ( 0.0000000000000000000, 1.000000000000000000, 0.0000000000000000000 ) ) ;
#170 = PERSON_AND_ORGANIZATION_ROLE ( 'creator' ) ;
#171 = APPROVAL_DATE_TIME ( #112, #186 ) ;
#172 = APPROVAL_ROLE ( '' ) ;
#173 = ADVANCED_FACE ( 'NONE', ( #177, #229 ), #44, .T. ) ;
#174 = AXIS2_PLACEMENT_3D ( 'NONE', #209, #151, #241 ) ;
#175 = FACE_BOUND ( 'NONE', #8, .T. ) ;
#176 = DIRECTION ( 'NONE',  ( -1.806739427298900791E-30, 1.000000000000000000, -5.174707386228063064E-16 ) ) ;
#177 = FACE_OUTER_BOUND ( 'NONE', #91, .T. ) ;
#178 = DIRECTION ( 'NONE',  ( 3.491481338843133355E-15, 5.174707386228063064E-16, 1.000000000000000000 ) ) ;
#179 = PRODUCT ( '321435', '321435', '', ( #155 ) ) ;
#180 = EDGE_LOOP ( 'NONE', ( #81 ) ) ;
#181 = CC_DESIGN_APPROVAL ( #186, ( #148 ) ) ;
#182 = VERTEX_POINT ( 'NONE', #66 ) ;
#183 = CLOSED_SHELL ( 'NONE', ( #200, #42, #150, #56, #50 ) ) ;
#184 = PERSON_AND_ORGANIZATION_ROLE ( 'design_owner' ) ;
#185 = EDGE_CURVE ( 'NONE', #88, #88, #142, .T. ) ;
#186 = APPROVAL ( #156, 'UNSPECIFIED' ) ;
#187 = PERSON_AND_ORGANIZATION ( #43, #134 ) ;
#188 = PERSON_AND_ORGANIZATION ( #43, #134 ) ;
#189 = EDGE_CURVE ( 'NONE', #199, #199, #69, .T. ) ;
#190 = APPROVAL_DATE_TIME ( #115, #192 ) ;
#191 = DIRECTION ( 'NONE',  ( -3.491481338843133355E-15, -5.174707386228063064E-16, -1.000000000000000000 ) ) ;
#192 = APPROVAL ( #60, 'UNSPECIFIED' ) ;
#193 = FACE_OUTER_BOUND ( 'NONE', #234, .T. ) ;
#194 = ORIENTED_EDGE ( 'NONE', *, *, #19, .T. ) ;
#195 = DIRECTION ( 'NONE',  ( -3.491481338843133355E-15, 9.031770143711729009E-17, -1.000000000000000000 ) ) ;
#196 = EDGE_LOOP ( 'NONE', ( #166 ) ) ;
#197 = APPROVAL_PERSON_ORGANIZATION ( #154, #192, #135 ) ;
#198 = APPLICATION_PROTOCOL_DEFINITION ( 'international standard', 'config_control_design', 1994, #161 ) ;
#199 = VERTEX_POINT ( 'NONE', #238 ) ;
#200 = ADVANCED_FACE ( 'NONE', ( #54 ), #55, .T. ) ;
#201 = CALENDAR_DATE ( 2021, 26, 11 ) ;
#202 = SECURITY_CLASSIFICATION_LEVEL ( 'unclassified' ) ;
#203 = AXIS2_PLACEMENT_3D ( 'NONE', #9, #191, #101 ) ;
#204 = PERSON_AND_ORGANIZATION ( #43, #134 ) ;
#205 = DIRECTION ( 'NONE',  ( 3.153425691349006731E-31, 1.000000000000000000, 9.031770143711729009E-17 ) ) ;
#206 = CC_DESIGN_PERSON_AND_ORGANIZATION_ASSIGNMENT ( #61, #72, ( #148 ) ) ;
#207 = AXIS2_PLACEMENT_3D ( 'NONE', #231, #64, #140 ) ;
#208 = DIRECTION ( 'NONE',  ( 0.0000000000000000000, 1.000000000000000000, 0.0000000000000000000 ) ) ;
#209 = CARTESIAN_POINT ( 'NONE',  ( 4.386871539305163360E-30, 6.501760815481766397E-31, 1.256449945901388704E-15 ) ) ;
#210 = FACE_OUTER_BOUND ( 'NONE', #89, .T. ) ;
#211 =( GEOMETRIC_REPRESENTATION_CONTEXT ( 3 ) GLOBAL_UNCERTAINTY_ASSIGNED_CONTEXT ( ( #86 ) ) GLOBAL_UNIT_ASSIGNED_CONTEXT ( ( #90, #110, #107 ) ) REPRESENTATION_CONTEXT ( 'NONE', 'WORKASPACE' ) );
#212 = APPROVAL_PERSON_ORGANIZATION ( #243, #186, #172 ) ;
#213 = CC_DESIGN_PERSON_AND_ORGANIZATION_ASSIGNMENT ( #37, #170, ( #217 ) ) ;
#214 = DIRECTION ( 'NONE',  ( -3.491481338843133355E-15, -5.174707386228063064E-16, -1.000000000000000000 ) ) ;
#215 = ORIENTED_EDGE ( 'NONE', *, *, #19, .F. ) ;
#216 = EDGE_CURVE ( 'NONE', #124, #124, #103, .T. ) ;
#217 = PRODUCT_DEFINITION ( 'UNKNOWN', '', #148, #18 ) ;
#218 = CARTESIAN_POINT ( 'NONE',  ( 2.793185071074506684E-13, 1.599999999999987876, 80.00000000000000000 ) ) ;
#219 = ORIENTED_EDGE ( 'NONE', *, *, #216, .F. ) ;
#220 = CARTESIAN_POINT ( 'NONE',  ( 2.779219145719134403E-13, -7.189289034394536528E-15, 79.60000000000000853 ) ) ;
#221 = CARTESIAN_POINT ( 'NONE',  ( 4.486706079474211077E-14, 6.649725098339606529E-15, 12.85043694651633217 ) ) ;
#222 = CC_DESIGN_APPROVAL ( #228, ( #217 ) ) ;
#223 = PERSON_AND_ORGANIZATION ( #43, #134 ) ;
#224 = ADVANCED_FACE ( 'NONE', ( #145 ), #165, .T. ) ;
#225 = AXIS2_PLACEMENT_3D ( 'NONE', #25, #31, #208 ) ;
#226 = APPROVAL_STATUS ( 'not_yet_approved' ) ;
#227 = DIRECTION ( 'NONE',  ( 0.0000000000000000000, 1.000000000000000000, 0.0000000000000000000 ) ) ;
#228 = APPROVAL ( #226, 'UNSPECIFIED' ) ;
#229 = FACE_OUTER_BOUND ( 'NONE', #14, .T. ) ;
#230 = CONICAL_SURFACE ( 'NONE', #20, 2.428059892324148983, 0.5235987755982978165 ) ;
#231 = CARTESIAN_POINT ( 'NONE',  ( 2.793185071074506684E-13, -7.225416114969383207E-15, 80.00000000000000000 ) ) ;
#232 = DIRECTION ( 'NONE',  ( 1.806739427298900791E-30, -1.000000000000000000, 5.174707386228062078E-16 ) ) ;
#233 = APPLICATION_CONTEXT ( 'configuration controlled 3d designs of mechanical parts and assemblies' ) ;
#234 = EDGE_LOOP ( 'NONE', ( #219 ) ) ;
#235 = ORIENTED_EDGE ( 'NONE', *, *, #189, .F. ) ;
#236 = AXIS2_PLACEMENT_3D ( 'NONE', #92, #16, #126 ) ;
#237 = CARTESIAN_POINT ( 'NONE',  ( 0.0000000000000000000, 0.0000000000000000000, 0.0000000000000000000 ) ) ;
#238 = CARTESIAN_POINT ( 'NONE',  ( 0.0000000000000000000, 2.428059892324148983, 0.0000000000000000000 ) ) ;
#239 = ORIENTED_EDGE ( 'NONE', *, *, #129, .F. ) ;
#240 = AXIS2_PLACEMENT_3D ( 'NONE', #221, #242, #68 ) ;
#241 = DIRECTION ( 'NONE',  ( -1.806739427298900791E-30, 1.000000000000000000, -5.174707386228062078E-16 ) ) ;
#242 = DIRECTION ( 'NONE',  ( 3.491481338843133355E-15, 5.174707386228063064E-16, 1.000000000000000000 ) ) ;
#243 = PERSON_AND_ORGANIZATION ( #43, #134 ) ;
ENDSEC;
END-ISO-10303-21;
